Victory Fanfare (Chrono Trigger) Bass Tab

Submitted: Oct 03, 2007 by Jon Wagner (Last updated: May 07, 2008)

0
Download | Listen
Game: Chrono Trigger
Composer(s): Nobuo Uematsu, Yasunori Mitsuda, Noriko Matsueda
Style: Transcription
Series: Chrono

AutoScroll: Slow | Medium | Fast
                                LUCCA (Bassline)
this isnt the right key.... i put it in this key so that its easy to play.
  Q=210 bass tab and melody tab start at the same time....
so pretty much u just play the first section\ (what i have boxed in)
first and then play both at the same time
 4/4              \
[--Gtr I-----------v----------------------------------------------------]
[  E E E E Q  E E   E E Q  E E E E   Q  E E E E Q    E E E E Q  E E     ]
[ |-7-----7----5---|---5----3-----3-|----3-----5----|-7-----7----7----| ]
[ |----------------|----------------|---------------|-----------------| ]
[ |----------------|----------------|---------------|-----------------| ]
[ |----------------|----------------|---------------|-----------------| ]
[-----------------------------------------------------------------------]

  E E Q  E.  S E  E    +S   S E  E.  S E  E  +S   S E
|---7-------12------|------12-------14-----------14---|
|--------5----------|---------------------------------|
|----------------10-|-(10)------12-------12-(12)------|
|-------------------|---------------------------------|

   E.  S E  E  +S   S E  E.  S   E  E  +S   S E E.  S E  E
|-----19-----------19-------19-|-----------19------12------|
|-12---------------------------|----------------5----------|
|----------17-(17)------17-----|---17-(17)--------------10-|
|------------------------------|---------------------------|

   +S   S E  E.  S E  E  +S   S E
|------12-------14-----------14---|
|---------------------------------|
|-(10)------12-------12-(12)------|
|---------------------------------|

   E.  S E  E  +S   S E  E.  S   E  E  +S   S E E.  S E  E
|-----19-----------19-------19-|-----------19------12------|
|-12---------------------------|----------------5----------|
|----------17-(17)------17-----|---17-(17)--------------10-|
|------------------------------|---------------------------|

   +S   S E  E.  S E  E  +S   S E
|------12-------14-----------14---|
|---------------------------------|
|-(10)------12-------12-(12)------|
|---------------------------------|

   E.  S E  E  +S   S E  E.  S   E  E  +S   S E  E.  S E  E
|-----19-----------19-------19-|-----------19---------------|
|-12---------------------------|--------------------20------|
|----------17-(17)------17-----|---17-(17)------------------|
|------------------------------|----------------18-------18-|

   +S   S E  E.  S E  E  +S   S E
|---------------------------------|
|------20-------22-----------22---|
|---------------------------------|
|-(18)------20-------20-(20)------|

   E.  S E  E  +S   S E  E.  S   E  E  +S   S E E.  S E  E
|------------------------------|-------------------12------|
|-----24-----------24-------24-|-----------24---5----------|
|------------------------------|------------------------10-|
|-22-------22-(22)------22-----|---22-(22)-----------------|

   +S   S E  E.  S E  E  +S   S E
|------12-------14-----------14---|
|---------------------------------|
|-(10)------12-------12-(12)------|
|---------------------------------|

   E.  S E  E  +S   S E  E.  S   E  E  +S   S E E.  S E  E
|-----19-----------19-------19-|-----------19------12------|
|-12---------------------------|----------------5----------|
|----------17-(17)------17-----|---17-(17)--------------10-|
|------------------------------|---------------------------|

   +S   S E  E.  S E  E  +S   S E
|------12-------14-----------14---|
|---------------------------------|
|-(10)------12-------12-(12)------|
|---------------------------------|

   E.  S E  E  +S   S E  E.  S   E  E  +S   S E E.  S E  E
|-----19-----------19-------19-|-----------19------12------|
|-12---------------------------|----------------5----------|
|----------17-(17)------17-----|---17-(17)--------------10-|
|------------------------------|---------------------------|

   +S   S E  E.  S E  E  +S   S E
|------12-------14-----------14---|
|---------------------------------|
|-(10)------12-------12-(12)------|
|---------------------------------|

   E.  S E  E  +S   S E  E.  S   E  E  +S   S E  E.  S E  E
|-----19-----------19-------19-|-----------19---------------|
|-12---------------------------|--------------------20------|
|----------17-(17)------17-----|---17-(17)------------------|
|------------------------------|----------------18-------18-|

   +S   S E  E.  S E  E  +S   S E
|---------------------------------|
|------20-------22-----------22---|
|---------------------------------|
|-(18)------20-------20-(20)------|

   E.  S E  E  +S   S E  E.  S   E  E  +S   S E E.  S E  E
|------------------------------|-------------------12------|
|-----24-----------24-------24-|-----------24---5----------|
|------------------------------|------------------------10-|
|-22-------22-(22)------22-----|---22-(22)-----------------|

   +S   S E  E.  S E  E  +S   S E
|------12-------14-----------14---|
|---------------------------------|
|-(10)------12-------12-(12)------|
|---------------------------------|

   E.  S E  E  +S   S E  E.  S   E  E  +S   S E E.  S E  E
|-----19-----------19-------19-|-----------19------12------|
|-12---------------------------|----------------5----------|
|----------17-(17)------17-----|---17-(17)--------------10-|
|------------------------------|---------------------------|

   +S   S E  E.  S E  E  +S   S E
|------12-------14-----------14---|
|---------------------------------|
|-(10)------12-------12-(12)------|
|---------------------------------|

   E.  S E  E  +S   S E  E.  S   E  E  +S   S E E.  S E  E
|-----19-----------19-------19-|-----------19------12------|
|-12---------------------------|----------------5----------|
|----------17-(17)------17-----|---17-(17)--------------10-|
|------------------------------|---------------------------|

   +S   S E  E.  S E  E  +S   S E
|------12-------14-----------14---|
|---------------------------------|
|-(10)------12-------12-(12)------|
|---------------------------------|

   E.  S E  E  +S   S E  E.  S   E  E  +S   S E  E.  S E  E
|-----19-----------19-------19-|-----------19---------------|
|-12---------------------------|--------------------20------|
|----------17-(17)------17-----|---17-(17)------------------|
|------------------------------|----------------18-------18-|

   +S   S E  E.  S E  E  +S   S E
|---------------------------------|
|------20-------22-----------22---|
|---------------------------------|
|-(18)------20-------20-(20)------|

   E.  S E  E  +S   S E  E.  S   E  E  +S   S E E.  S E  E
|------------------------------|-------------------12------|
|-----24-----------24-------24-|-----------24---5----------|
|------------------------------|------------------------10-|
|-22-------22-(22)------22-----|---22-(22)-----------------|

   +S   S E  E.  S E  E  +S   S E
|------12-------14-----------14---|
|---------------------------------|
|-(10)------12-------12-(12)------|
|---------------------------------|

   E.  S E  E  +S   S E  E.  S   E  E  +S   S E E.  S E  E
|-----19-----------19-------19-|-----------19------12------|
|-12---------------------------|----------------5----------|
|----------17-(17)------17-----|---17-(17)--------------10-|
|------------------------------|---------------------------|

   +S   S E  E.  S E  E  +S   S E
|------12-------14-----------14---|
|---------------------------------|
|-(10)------12-------12-(12)------|
|---------------------------------|

   E.  S E  E  +S   S E  E.  S   E  E  +S   S E E.  S E  E
|-----19-----------19-------19-|-----------19------12------|
|-12---------------------------|----------------5----------|
|----------17-(17)------17-----|---17-(17)--------------10-|
|------------------------------|---------------------------|

   +S   S E  E.  S E  E  +S   S E
|------12-------14-----------14---|
|---------------------------------|
|-(10)------12-------12-(12)------|
|---------------------------------|

   E.  S E  E  +S   S E  E.  S   E  E  +S   S E  E.  S E  E
|-----19-----------19-------19-|-----------19---------------|
|-12---------------------------|--------------------20------|
|----------17-(17)------17-----|---17-(17)------------------|
|------------------------------|----------------18-------18-|

   +S   S E  E.  S E  E  +S   S E
|---------------------------------|
|------20-------22-----------22---|
|---------------------------------|
|-(18)------20-------20-(20)------|

   E.  S E  E  +S   S E  E.  S   E  E  +S   S E H
|------------------------------|---------------------*|
|-----24-----------24-------24-|-----------24--------*|
|------------------------------|---------------------*|
|-22-------22-(22)------22-----|---22-(22)-----------*|
Login or Register to remove this ad.