Ads

Underground Sewer (Chrono Trigger) Guitar Tab

Submitted: Apr 06, 2009 by TheDoomOfAllFires (Last updated: Feb 03, 2010)

4.75
Average: 4.8 (4 votes)
Download | Listen
Game: Chrono Trigger
Composer(s): Nobuo Uematsu, Yasunori Mitsuda, Noriko Matsueda
Style: Arrangement, Fingerstyle
Series: Chrono

AutoScroll: Slow | Medium | Fast
Chrono Trigger - Underground Sewer
Arranged by TheDoomOfAllFires; 04/06/2009

BPM=80
Drop-D tuning


Hope you like it ! ^^



     E  E  E  Q    E   E  E     E  E  H.              E  E  E  Q    E   E  E   
E||--------------------------|---------------------|--------------------------|
B||--------0-------1p--0-----|--------0------------|--------0-----------------|
G||-----0-----------------0--|---------------------|----------------2p--0-----|
D||--2-----------------------|--1--4---------------|--1--4-----------------4--|
A||-----------2--------------|---------------------|-----------2--------------|
D||--2-----------------------|--1------------------|--1-----------------------|


  E  E  H.              E  E  E  Q    E  E  E     E  E  E  Q    E  E   E   
---------------------|-------------------------|----------------0---------|
--------0------------|--------0-------3--1--0--|--------1----------3p--1--|
-----0---------------|-----0-------------------|-----2--------------------|
--2------------------|--2----------------------|--2--------2--------------|
---------------------|-----------2-------------|--0-----------------------|
--2------------------|--2----------------------|--------------------------|


  E  E  E  E  E  S  S  E  E     E  E  E  E  H         
-----------------------------|--0--------------------|
--0--------------------------|-----0-----0-----------|
-----------0--2--4p-2p-0-----|--------0--------------|
-----1--4-----------------4--|--------------2--------|
--2--------------------------|-----------------------|
--------4-----2--------1-----|--2--------------------|


                                           ^            
    E  E  E  E  E  E  E  E     E  E  E  E  Q.     S  S  
|---3--------------3--2--0--|--------0--2--0------0h-2-|
|------0--1--0--------------|--4-----------------------|
|*-----0--------3-----------|--------------0-----------|
|*--------2-----------2-----|--1-----2-----------------|
|---------------------------|-----2--------------------|
|---2-----------4-----------|--------------2-----------|


                                   |--3--|                    
  E  E  E  E  E  E  E  E     E  E  S  S  S S S E  E  E  E     
--3--------------3--2--0--|--------------------0------------||
-----0--1--0--------------|--4-----4h-5p-4---4--------------||
-----0--------3-----------|----------------6---------0-----*||
--------2-----------2-----|-----4-----------------------2--*||
--------------------------|--2--------------------2---------||
--2-----------4-----------|--------------------2------------||


                                            ^         
  E  S S S S  S  S E  E  Q       Q    E  E  H         
--5------0-3p-2p-0----2-------|----------0-----------|
-----5-------------4-----0----|--1----------4--------|
-----2---2--------------------|----------------------|
-------------------------4----|--2----------4--------|
--0----------------2----------|-------0-----2--------|
------------------------------|----------------------|


                                              ^         
  E   S S  S S  S S E  E  Q        Q     Q    H         
--8----------7p-5------7-------|-----------------------|
------------------8-7----------|---------8----7--------|
------9----9--------------8----|---9-----9----8--------|
-----10---10--------------9----|--------10-------------|
--0--------------------9-------|--10-------------------|
--------------------9----------|--------------9--------|


  E  E  E  Q    E   E  E     E  E  H.              E  E  E  Q    E   E  E   
--------------------------|---------------------|--------------------------|
--------0-------1p--0-----|--------0------------|--------0-----------------|
-----0-----------------0--|---------------------|----------------2p--0-----|
--2-----------------------|--1--4---------------|--1--4-----------------4--|
-----------2--------------|---------------------|-----------2--------------|
--2-----------------------|--1------------------|--1-----------------------|


  E  E  H.              E  E  E  Q    E  E  E     E  E  E  Q    E  E   E   
---------------------|-------------------------|----------------0---------|
--------0------------|--------0-------3--1--0--|--------1----------3p--1--|
-----0---------------|-----0-------------------|-----2--------------------|
--2------------------|--2----------------------|--2--------2--------------|
---------------------|-----------2-------------|--0-----------------------|
--2------------------|--2----------------------|--------------------------|


  E  E  E  E  E  S  S  E  E     E  E  E  E  H         
-----------------------------|--0--------------------|
--0--------------------------|-----0-----0-----------|
-----------0--2--4p-2p-0-----|--------0--------------|
-----1--4-----------------4--|--------------2--------|
--2--------------------------|-----------------------|
--------4-----2--------1-----|--2--------------------|


                                           ^            
    E  E  E  E  E  E  E  E     E  E  E  E  Q.     S  S  
|---3--------------3--2--0--|--------0--2--0------0h-2-|
|------0--1--0--------------|--4-----------------------|
|*-----0--------3-----------|--------------0-----------|
|*--------2-----------2-----|--1-----2-----------------|
|---------------------------|-----2--------------------|
|---2-----------4-----------|--------------2-----------|


                                   |--3--|                    
  E  E  E  E  E  E  E  E     E  E  S  S  S S S E  E  E  E     
--3--------------3--2--0--|--------------------0------------||
-----0--1--0--------------|--4-----4h-5p-4---4--------------||
-----0--------3-----------|----------------6---------0-----*||
--------2-----------2-----|-----4-----------------------2--*||
--------------------------|--2--------------------2---------||
--2-----------4-----------|--------------------2------------||


                                            ^         
  E  S S S S  S  S E  E  Q       Q    E  E  H         
--5------0-3p-2p-0----2-------|----------0-----------|
-----5-------------4-----0----|--1----2-----4--------|
-----2---2--------------------|----------------------|
-------------------------4----|--2----------4--------|
--0----------------2----------|-------------2--------|
------------------------------|----------------------|


                                              ^            ^                  
  E   S S  S S  S S E  E  Q        Q     Q    Q    Q       W                  
--8----------7p-5------7-------|------------------------|--0----------------||
------------------8-7----------|---------8----7---------|--0----------------||
------9----9--------------8----|---9-----9---------8----|--0----------------||
-----10---10--------------9----|--------10----9---------|-------------------||
--0--------------------9-------|--10--------------------|-------------------||
--------------------9----------|--------------9---------|--2----------------||




Duration Legend
---------------
W - whole
H - half
Q - quarter
E - 8th
S - 16th
T - 32nd
X - 64th
. - note dotted
|-n-|  - n-tuplets


Tablature Legend
----------------
L - tied note
x - dead note
g - grace note
(n) - ghost note
> - accentuded note
NH - natural harmonic
AH - artificial harmonic
TH - tapped harmonic
SH - semi harmonic
PH - pitch harmonic
h - hammer on
p - pull off
b - bend
br - bendRelease
pb - preBend
pbr - preBendRelease
brb - bendReleaseBend
\n/ - tremolo bar dip
\n - tremolo bar dive
-/n - tremolo bar Release up
/n\ - tremolo bar inverted dip
/n - tremolo bar return
-\n - tremolo bar Release down
S - shift slide
s - legato slide
/ -  slide into from below or out of upwards
\ -  slide into from above or out of downwards
~ - vibrato
W - wide vibrato
tr - trill
TP - tremolo picking
T - tapping
S - slap
P - pop
< - fade in
^ - brush up
v - brush down
Login or Register to remove this ad.

1 comment on Underground Sewer

Great one, but you should pay

4

Great one, but you should pay abit more attention to the bass tones. In almost all of your arrangements I find parts in which the bass tones sound horribly off. Like here:

     E  E  E  Q    E   E  E     E  E  H.              E  E  E  Q    E   E  E   
E||--------------------------|---------------------|--------------------------|
B||--------0-------1p--0-----|--------0------------|--------0-----------------|
G||-----0-----------------0--|---------------------|----------------2p--0-----|
D||--2-----------------------|--1--4---------------|--1--4-----------------4--|
A||-----------2--------------|--2------------------|--2--------2--------------|
D||--2-----------------------|---------------------|--------------------------|

I think it sounds more accurate this way.