Singing Mountain (Chrono Trigger) Guitar Tab

Submitted: Sep 29, 2007 by Juja (Last updated: Aug 26, 2009)

4.333335
Average: 4.3 (3 votes)
Download | Listen
Game: Chrono Trigger
Composer(s): Nobuo Uematsu, Yasunori Mitsuda, Noriko Matsueda
Style: Transcription
Series: Chrono

AutoScroll: Slow | Medium | Fast
Game: Chrono Trigger
Song: "Singing Mountain"
Composed by: Yasunori Mitsuda
Tabbed by: Not So Great Juja (Paul Horses)

Key:
~ = vibrato
p = pull-off
h = hammer-on
/ = slide
pm = palm-mute
tr = tremolo picking

I have three different parts for the song tabbed out. Example:

e|---------------------------------|
b|---------------------------------|
G|-----------GUITAR 1--------------|
D|---------------------------------|
A|---------------------------------|
E|---------------------------------|
 |                                 |
e|---------------------------------|
b|---------------------------------|
G|-----------GUITAR 2--------------|
D|---------------------------------|
A|---------------------------------|
E|---------------------------------|
 |                                 |
e|---------------------------------| 
b|---------------------------------|
G|-----------GUITAR 3--------------|
D|---------------------------------|
A|---------------------------------|
E|---------------------------------|

I could be wrong on some of this (especially the apreggio parts),
so if you have any comments
or correction, feel free to E-mail me at: [email protected]


e|---------------------------------|   e|-------------------------------|
b|------11-11-10-11--13--10--------|   b|-------------------10----------|
G|---------------------------10----|   G|------12-12-10-12------10------|
D|---12----------------------------|   D|--12---------------------------|
A|---------------------------------|   A|-------------------------------|
E|---------------------------------|   E|-------------------------------|
 |                                 |    |                               |
e|----------10-------------8-------|   e|----------6-----------3-----1--|
b|--------11--11---------10-10-----|   b|--------8---8--------3-----1---|
G|------12------12-----10-----10---|   G|------8-------8-----3-----2----|
D|----12----------12-10---------10-|   D|----8-----------8--5-----3-----|
A|--10--------------8--------------|   A|--6----------------------------|
E|---------------------------------|   E|-------------------------------|
 |                                 |    |                               |
e|--3-----------------1------------|   e|-----3------------1------------|
b|--3-----------------3------------|   b|-----3------------3-----3------|
G|---------------------------------|   G|------------------------2------|
D|---------------------------------|   D|-------------------------------|
A|---------------------------------|   A|-------------------------------|
E|---------------------------------|   E|-------------------------------|


==========================================================================


e|---------------------------------|   e|-------------------------------|
b|-----11-11-10-11--13--10---------|   b|-----11-10-----10--------------|
G|---------------------------10----|   G|------------12----12-----------|
D|--12-----------------------------|   D|12-13--------------------------|
A|---------------------------------|   A|-------------------------------|
E|---------------------------------|   E|-------------------------------|
 |                                 |    |                               |
e|----------10-------------8-------|   e|------------------------6------|
b|--------11--11---------10-10-----|   b|-----8------10--------8---8----|
G|------12------12-----10-----10---|   G|----8-----10--------8-------8--|
D|----12----------12-10---------10-|   D|---8----10--------8-----------8|
A|--10--------------8--------------|   A|--6----8--------6--------------|
E|---------------------------------|   E|-------------------------------|
 |                                 |    |                               |
e|--3-----------------1------------|   e|-------------------------------|
b|--3-----------------3------------|   b|--4-----6----------------------|
G|---------------------------------|   G|--3-----5---------5-----3------|
D|---------------------------------|   D|--5-----7---------7-----5------|
A|---------------------------------|   A|-------------------------------|
E|---------------------------------|   E|-------------------------------|


===========================================================================


Repeat all of this, but on the last part,
make this little change to the middle section.

e|----------------------3-------3-|
b|-----8------10------3-------3---|
G|----8-----10------3-------3-----|
D|---8----10------5-------5-------|
A|--6----8------------------------|
E|--------------------------------|


==========================================================================


e|-----------------13--------------|   e|-------------------------------|
b|-15-15-13-15--16------13---------|   b|--------------------15---------|
G|---------------------------------|   G|----15-15-14-15-17--------14---|
D|---------------------------------|   D|-15----------------------------|
A|---------------------------------|   A|-------------------------------|
E|---------------------------------|   E|-------------------------------|
 |                                 |    |                               |
e|---------10--------------13------|   e|--------10--------------10-----|
b|-------11--11----------13--13----|   b|------11--11----------11--11---|
G|-----12------12------14------14--|   G|----10------10------12------12-|
D|---12----------12--15----------15|   D|--10---------10--12----------12|
A|-10--------------15--------------|   A|12-------------10--------------|
E|---------------------------------|   E|-------------------------------|
 |                                 |    |                               |
e|--6-----------------5------------|   e|--6----------------5-----------|
b|--3-----------------6------------|   b|--8----------------6-----------|
G|---------------------------------|   G|-------------------------------|
D|---------------------------------|   D|-------------------------------|
A|---------------------------------|   A|-------------------------------|
E|---------------------------------|   E|-------------------------------|


===========================================================================


*the song repeats after this next part,
and the note with the asterisk kind
of replaces the very first note in the song when it repeats.

e|---------------------------------|   e|-------------------------------|
b|---------------------------------|   b|15-16-15-13--------------------|
G|------------------14-15----------|   G|------------15-14---11--12--14*|
D|---15-17-17-15-17------------15--|   D|-------------------------------|
A|---------------------------------|   A|-------------------------------|
E|---------------------------------|   E|-------------------------------|
 |                                 |    |                               |
e|---------11--------------10------|   e|-------------------------------|
b|-------11--11----------11--11----|   b|-------11--------|             |
G|-----12------12------12------12--|   G|-----12------12--|     ?       |
D|---13----------13--12----------12|   D|---12------12----|             |
A|-13--------------10--------------|   A|-10------10------|             |
E|---------------------------------|   E|-------------------------------|
 |                                 |    |                               |
e|--6-----------------6------------|   e|--6---3---5--------------------|
b|--4-----------------3------------|   b|------4---7--------------------|
G|---------------------------------|   G|--5-------7--------------------|
D|---------------------------------|   D|-------------------------------|
A|---------------------------------|   A|-------------------------------|
E|---------------------------------|   E|-------------------------------|


? I'm not sure about this part, but here's my attempt at it.


e|-----------3-6-10-14------------------------------------------|
b|---------3----------15----15------15--------------------------|
G|-------3--------------14----14------14-----14-11--------------|
D|-----5------------------16----16------16--------13-12---------|
A|---5----------------------------17------17-----------12-9-----|
E|-3-------------------------------------------------------11-10|
Login or Register to remove this ad.

2 comments on Singing Mountain

im a little confused on how

im a little confused on how your tab is set up, i see two columns so its kinda throwing me off and i cant seem to follow the tab with the midi file. could someone explain how it is going?

Great song, great tabs. In

4

Great song, great tabs.

In reply to the one above me in case anyone else wonders; I suppose three rows means three instruments. Each column is one bar.