Robo's Theme (Chrono Trigger) Guitar Tab

Submitted: Jan 17, 2009 by snester94 (Last updated: Jan 17, 2009)

3.5
Average: 3.5 (2 votes)
Download | Listen
Game: Chrono Trigger
Composer(s): Nobuo Uematsu, Yasunori Mitsuda, Noriko Matsueda
Style: 2 or more instruments, Transcription
Series: Chrono

AutoScroll: Slow | Medium | Fast
Title: Robo's Theme
Name of Game: Chrono Trigger
Composed by: Yasunori Mitsuda
Tabber: snester94
Tabbed on: January 17th, 2009

/=slide
*=repeat

This song is played in the folowing order:

	Guitar #1	Guitar #2	Bass Guitar
					1st line
	1st line	1st line	2nd line
	2nd line	2nd line	3rd line
	3rd line	resting		4th line
	4th line	resting		5th line

On the repeat skip the first Bass Guitar line and start with the second.

I have seperated this song into parts to make navagating it easier.

 Guitar #1 (Melody)			Part #1
e||---------------0---0------0---0---0----2---2----0------------0--0-------------------|
B||*----3----3----2---2------2---2---2----3---3----2----3---3---2--2----3---2----------|
G||-----4----4------------------------------------------4---4-------------------2--2/4-|
D||------------------------------------------------------------------------------------|
A||*-----------------------------------------------------------------------------------|
E||------------------------------------------------------------------------------------|

e|--------------0---0-----0---0---0----5---2---0-------------0--0----------------------|
B|----3----3----2---2-----2---2---2----7---3---2-----3---3---2--2----2------5---4------|
G|----4----4-----------------------------------------4---4------------------4---4------|
D|--------------------------------------------------------------------------4---4---0--|
A|-------------------------------------------------------------------------------------|
E|-------------------------------------------------------------------------------------|
					Part #2
e|-------------------------------------------------------------------------------------|
B|-------------------------------------------------------------------------------------|
G|-------------0---2-----2---2--0-------------------------0--2-------------------------|
D|----4---4-------------------------4--2----0/2----4--4--------------------------0/2---|
A|--------------------------------------------------------------0---2-----4------------|
E|-------------------------------------------------------------------------------------|

e|------------------------------------------------------------------------------------||
B|-----------------------------------------------------------------------------------*||
G|------------0---2-----2---2--4----2--2--0---------4------4--------4-----------------||
D|---4---4------------------------------------4-----4------2--------1-----------------||
A|-----------------------------------------------------------------------------------*||
E|------------------------------------------------------------------------------------||



 Guitar #2 (Harmony)   Played with Part #1, repeat when Part #1 is played again
e||-------------3------------0---------------0-----------------------------------5------|
B||*---------3----------------------------------------------------------------5---------|
G||-----0----------------2---------------2-----------4--2----4-------------7--------2---|
D||-------------------2------------2--------------4--------------5------------------0---|
A||*---------------0------------2--------------2--------------------5--0----------------|
E||--3-----------------------------------------------------3----------------------------|

e|------------3------------0---------------0-----------------------------------0-------||
B|---------3---------------------------------------------------------------------5-4--*||
G|----0----------------2---------------2-----------4--2----4----------------7----4-4---||
D|------------------2------------2--------------4--------------5---------7-------4-4---||
A|---------------0------------2--------------2--------------------5--0----------------*||
E|-3-----------------------------------------------------3-----------------------------||
 


 Bass Guitar (Background)	 Played prior to Part #1
G||-------------------------------------------------------------------------------------|
D||-------------------------------------------------------------------------------------|
A||-------------------------------------------------------------------5-----7-----10----|
E||-------------------------------------------------------------------------------------|
B||------3------3---3-------3------3---3-------3------3---3-------3------3------5-------|
		Played with part #1 and Part #2, Played with repeat as well
G|--------------------------------------------------------------------------------------|
D|*-------------------------------------------------------------------------------------|
A|---------------------------2------2----2----0-----------------------------------------|
E|*----3------3----5----5--------------------------3------3---5---3---------------------|
B|----------------------------------------------------------------------3---3---3---3---|

G|--------------------------------------------------------------------------------------|
D|--------------------------------------------------------------------------------------|
A|---------------------------2------2----2----0-------------------------2---2---2---2---|
E|-----3------3----5----5--------------------------3------3---5---3---------------------|
B|--------------------------------------------------------------------------------------|

G|---------------------------0------0----0--2--0------------------------0---0---2---2---|
D|-----0------0----4----4--------------------------4------0--0--4--4--------------------|
A|--------------------------------------------------------------------------------------|
E|--------------------------------------------------------------------------------------|
B|--------------------------------------------------------------------------------------|

G|---------------------------0------0----0--2--0----------------------------------------|
D|-----------------4----4--------------------------------------------------------------*|
A|-----2------2------------------------------------2----2----2----2----2----2----2----2-|
E|-------------------------------------------------------------------------------------*|
B|--------------------------------------------------------------------------------------|
Login or Register to remove this ad.