1000 A.D. (Chrono Trigger) Bass Tab

Submitted: Feb 08, 2009 by auriplane (Last updated: Dec 04, 2010)

0
Download | Listen
Game: Chrono Trigger
Composer(s): Nobuo Uematsu, Yasunori Mitsuda, Noriko Matsueda
Style: Transcription
Series: Chrono

This song is also called Peaceful Days

AutoScroll: Slow | Medium | Fast
                  Chrono Trigger - Peaceful Day BASS TAB
                         Song by Yasunori Mitsuda

                  Tabbed by auriplane ([email protected])

Four-string bass, standard tuning.

Rest for six measures at the beginning.

        Repeat 2x:

   W        W        W        W        W        W        W        W
G |--------|--------|--------|--------|--------|--------|8-------|--------|
D |9-------|--------|11------|--------|9-------|--------|--------|8-------|
A |--------|11------|--------|9-------|--------|11------|--------|--------|
E |--------|--------|--------|--------|--------|--------|--------|--------|

   W        W        W        H   H    W        W        W       (W)
G |--------|8-------|9-------|--------|--------|--------|--------|--------|
D |--------|--------|--------|9---8---|--------|11------|--------|--------|
A |11------|--------|--------|--------|11------|--------|9-------(9)------|
E |--------|--------|--------|--------|--------|--------|--------|--------|

   W        W        H   H    W        W        W        W       (W)
G |--------|--------|--------|--------|--------|--------|--------|--------|
D |--------|--------|9-------|--------|11------|--------|9-------(9)------|
A |--------|9-------|----12--|11------|--------|9-------|--------|--------|
E |12------|--------|--------|--------|--------|--------|--------|--------|

        Don't repeat:

   W        W        W       (W)
G |--------|--------|--------|--------|
D |11------|--------|9-------(9)------|
A |--------|9-------|--------|--------|
E |--------|--------|--------|--------|
Login or Register to remove this ad.