Millennial Fair (Chrono Trigger) Guitar Tab

Submitted: Oct 03, 2007 by Stamen47 (Last updated: Sep 19, 2009)

5
Average: 5 (9 votes)
Download | Listen
Game: Chrono Trigger
Composer(s): Nobuo Uematsu, Yasunori Mitsuda, Noriko Matsueda
Style: Arrangement, Fingerstyle
Series: Chrono

This song is also called Leene Square

AutoScroll: Slow | Medium | Fast
Leene Square
Chrono Trigger
Composed by Yasunori Mitsuda         

Guitar
      E   S S E  E  S S S S    Q    E  E  E  E     E  S S E  E  S S E
E||--10-------7--8--7-8-7-5-|--3----5--2--------|--0--2---3--3--5---7--|
B||------10-----------------|----------------3--|----------------------|
G||-------------------------|-------------------|---------0---------0--|
D||-----------0-----------0-|----------0--------|-------2---------0----|
A||---------0----7----------|-------0-----0-----|--3-------------------|
D||---0---------------------|--0-------------0--|------------5---------|

  E.  S E  E  E  E     E.  S S S E  E  E     E.  S S S E  E  E
--5---5-5--5--------|--2---2---2-3--2--0--|--2---2---2-3--2--0--|
--2---2-2--2--------|--3---3---3-3--3--3--|--3---3---3-3--3--3--|
--2---2-2--2--------|--2---2---2-2--2--2--|--2---2---2-2--2--2--|
--2---2-2--2--------|------------0--------|------------0--------|
--0---0-0--0--------|--------0---------0--|--------0---------0--|
--------------------|--0------------------|--0------------------|

  E.  S S S E  E  E     E.  S S S E  E  E       E.  S S S Q    S S
--2---2---2-3--2--0--|--2---2---2-3--2--0--||---5---3---2-0------0-|
--3---3---3-3--3--3--|--3---3---3-3--3--3--||------------------3---|
--2---2---2-2--2--2--|--2---2---2-2--2--2--||*---------------------|
------------0--------|------------0--------||*------------0--------|
--------0---------0--|--------0---------0--||---------0--------0---|
--0------------------|--0------------------||---0------------------|

  S S S S S S Q    E     E.  S S S E.  S S S    E  S S S E  E  E  S
--2-3-2-0-------------|----------------------|----------------------|
------------3---------|--1---3---1-0---1---0-|----------------------|
--------------2-------|------------0---------|--2--2-4-2-0--2-------|
--------------0-------|--------2---------2---|--------------0-------|
----------0--------0--|--3-------------------|-----------0-----0----|
--0-------------------|----------------------|--0-------------------|

  E.  S S S Q    S S    S S S S S S Q    E     E.  S S S E.  S S S
--5---3---2-0------0-|--2-3-2-0-------------|------------0---2---3-|
-----------------3---|------------3---------|--1---3---1-1---------|
---------------------|--------------2-------|--------0---------0---|
------------0--------|--------------0-------|----------------------|
--------0--------0---|----------0--------0--|--3-------------------|
--0------------------|--0-------------------|----------------------|

  E  S S S E  E  E  S      E  S S E  Q    E     E  S S E  Q    E
--2--2-3-2-0--2--------||--------------------|--------------------|
-----------------------||-----3---3--5----5--|-----3---3--5----5--|
----------------------*||-----4---4--6----6--|-----4---4--6----6--|
--------------0-------*||--------------------|--------------------|
-----------0-----0-----||--------------------|--------------------|
--0--------------------||--5----5----7----7--|--5----5----7----7--|

  E  S S E  E  S S E     E.  S E  Q    E     E  S S E  Q    E
--3------5--2--0------|--0---0-0--0----0--|--------------------|
-----3---3--3------3--|--2---2-2--2----2--|-----3---3--5----5--|
-----4---4--2------2--|--2---2-2--2----2--|-----4---4--6----6--|
------------0----0----|--2---2-2--2----2--|--------------------|
----------------------|--0---0-0--0----0--|--------------------|
--5----5--------------|-------------------|--5----5----7----7--|

  E  S S E  Q    E     E  S S E  E  S S E     E.  E  S E.  E  S
-----3---3--5----5--|--3------5--2--0------|--0---0--0-0---0--0-|
-----3---3--5----5--|-----3---3--3------3--|--5---5--3-0---0--0-|
-----4---4--6----6--|-----4---4--2------2--|--5---5--5-5---5--5-|
--------------------|------------0----0----|--5---5--5-5---5--5-|
--------------------|----------------------|--0---0--0-0---0--0-|
--5----5----7----7--|--5----5--------------|--------------------|

  E.  E  S S. S S S S T    E.  E  S E.  E.     E.  E  S E  E  E
--0---0--0-0--0-2-0-----|--0---0--0-0---0---|--0---0--0-0--2--3--|
--5---5--3-0--------3---|--2---2--2-2---2---|--2---2--2-2--2--2--|
--5---5--5-5------------|--2---2--2-2---2---|--2---2--2-2--2--2--|
--5---5--5-5------------|--2---2--4-2---0---|--2---2--4-2--2--2--|
--0---0--0-0------------|--0---0--0-0---0---|--0---0--0-0--0--0--|
------------------------|-------------------|--------------------|

  E  E  E  E  E  E     E  E  E  E  E  E     E  E  E  E  E  E
--5-----5--5-----5--|-----5--3--2-----0--|--------0--0-----2--|
--------7--5--------|--0--------3--2--3--|--3-----3--3--------|
-----7--------7--6--|--0-----0--------0--|--1-----1-----------|
--4--------------4--|-----0--------------|-----2--------2--4--|
--------------------|--------------------|--------------------|
--------------------|--------------------|--------------------|

  E  E  E  E  E  E     E  E  E  E  E  E     E  E  E  E  E  E
--0-----------------|--5-----5--5-----5--|-----5--3--2-----0--|
--3--2--0--2-----3--|--------7--5--------|--0--------3--2--3--|
--2-----------2-----|-----7--------7--6--|--0-----0--------0--|
--------2-----------|--4--------------4--|-----0--------------|
--------------------|--------------------|--------------------|
--------------------|--------------------|--------------------|

  E  E  E  E  E  E     E  E  E  E  E  E
--------0--0-----2--|--0------------------||
--3-----3--3--------|--3--2--0--2-----3---||
--1-----1-----------|--2-----------2-----*||
-----2--------2--4--|--------2-----------*||
--------------------|---------------------||
--------------------|---------------------||

Duration Legend
---------------
W - whole
H - half
Q - quarter
E - 8th
S - 16th
T - 32nd
X - 64th
. - note dotted
|-n-|  - n-tuplets
Login or Register to remove this ad.

5 comments on Millennial Fair

No comments on this? I like

5

No comments on this? I like how you tabbed the tricky parts. Nice job on the strumming in the middle. Great arrangement

Need to add that it's Drop D

Need to add that it's Drop D tuning.

It's a great tab, but it seems impossible to me.

really cool

5

Why are some of the best tabs rated least? Are they intimidated or something? lol

uuurrrggh

5

awesssooome XD ! thanks for tabbing this dunno why I didnt come across this earlier. I love most your tabs if not all.

AWESOME. I NEED TO PLAY THIS.

AWESOME. I NEED TO PLAY THIS.