Millennial Fair (Chrono Trigger) Bass Tab

Submitted: Oct 03, 2007 by Calebelijah (Last updated: Sep 20, 2009)

0
Download | Listen
Game: Chrono Trigger
Composer(s): Nobuo Uematsu, Yasunori Mitsuda, Noriko Matsueda
Style: Transcription
Series: Chrono

This song is also called Leene Square

Click here for a video example.

AutoScroll: Slow | Medium | Fast
                                Millenial Fair                                  

Bass
     Q.     E  Q       Q.     E  Q       H        Q       Q    Q    Q
G||------------7----|--9------7-------|----------------|--7--------------|
D||---------7-------|------------7----|-----------7----|-------7---------|
A||--5--------------|-----------------|--5-------------|------------5----|
E||-----------------|-----------------|----------------|-----------------|

  Q.     E  Q       Q    Q    Q       Q.     E  E  E     E  E  H
------------5----|------------5----|------------------|-----------------|
---------5-------|-------5---------|------------------|-----------------|
--3--------------|--3--------------|--0------0--0-----|--0--------------|
-----------------|-----------------|------------------|-----------------|

    Q.     E  E  E     Q.     E  E  E     Q.     E  E  E     Q.     E  E  E
|-------------7-----|------------7-----|------------7-----|------------7-----|
|*---------7-----7--|---------7-----7--|---------7-----7--|---------7-----7--|
|*--5---------------|--5---------------|--5---------------|--5---------------|
|-------------------|------------------|------------------|------------------|

  Q.     E  E  E     Q.     E  E  E     Q.     E  E  E     Q.     E  E  E
------------7-----|------------7-----|------------7-----|------------7-----|
---------7-----7--|---------7-----7--|---------7-----7--|---------7-----7--|
--5---------------|--5---------------|--5---------------|--5---------------|
------------------|------------------|------------------|------------------|

  Q.     E  E  E     Q.     E  E  E     Q.     E  E  E     Q.     E  E  E
------------7-----|------------7-----|------------7-----|------------7-----|
---------7-----7--|---------7-----7--|---------7-----7--|---------7-----7--|
--5---------------|--5---------------|--5---------------|--5---------------|
------------------|------------------|------------------|------------------|

  Q.     E  E  E     Q.     E  E  E     Q.     E  E  E     Q.     E  E  E
------------5-----|------------5-----|------------7-----|------------7-----|
---------5-----5--|---------5-----5--|---------7-----7--|---------7-----7--|
--3---------------|--3---------------|--5---------------|--5---------------|
------------------|------------------|------------------|------------------|

  Q.     E  E  E     Q.     E  E  E     Q.     E  E  E     Q.     E  E  E
------------7-----|------------7-----|------------7-----|------------7-----|
---------7-----7--|---------7-----7--|---------7-----7--|---------7-----7--|
--5---------------|--5---------------|--5---------------|--5---------------|
------------------|------------------|------------------|------------------|

  Q.     E  E  E     Q.     E  E  E     Q.     E  E  E     Q.     E  E  E
------------5-----|------------5-----|------------7-----|------------7-----|
---------5-----5--|---------5-----5--|---------7-----7--|---------7-----7--|
--3---------------|--3---------------|--5---------------|--5---------------|
------------------|------------------|------------------|------------------|

  Q.     E  E  E     Q.     E  E  E     Q.     E  E  E     Q.     E  E  E
------------7-----|------------7-----|------------7-----|------------7-----|
---------7-----7--|---------7-----7--|---------7-----7--|---------7-----7--|
--5---------------|--5---------------|--5---------------|--5---------------|
------------------|------------------|------------------|------------------|

  Q.     E  E  E     Q.     E  E  E     Q.     E  E  E     Q.     E  E  E
------------5-----|------------5-----|------------7-----|------------7-----|
---------5-----5--|---------5-----5--|---------7-----7--|---------7-----7--|
--3---------------|--3---------------|--5---------------|--5---------------|
------------------|------------------|------------------|------------------|

  Q.     E  E  E     Q.     E  E  E     Q.     E  E  E     Q.     E  E  E
------------7-----|------------7-----|------------7-----|------------7-----|
---------7-----7--|---------7-----7--|---------7-----7--|---------7-----7--|
--5---------------|--5---------------|--5---------------|--5---------------|
------------------|------------------|------------------|------------------|

  Q.     E  E  E     Q.     E  E  E     Q.     E  E  E     Q.     E  E  E
------------5-----|------------5-----|------------7-----|------------7-----|
---------5-----5--|---------5-----5--|---------7-----7--|---------7-----7--|
--3---------------|--3---------------|--5---------------|--5---------------|
------------------|------------------|------------------|------------------|

  Q.     E  Q       Q.     E  Q       Q.     E  Q       Q.     E  E  E
-----------------|-----------------|-----------------|------------------|
-----------------|-----------------|-----------------|------------------|
---------5-------|---------7-------|---------5-------|---------7-----7--|
--3---------3----|--5---------5----|--3---------3----|--5---------5-----|

  Q.     E  Q       Q.     E  Q       Q.     Q    E     E  E  E  E  E  E
-----------------|-----------------|-----------------|--------------------|
-----------------|---------7-------|--------------7--|--5--4--------------|
---------5-------|--5---------5----|---------7-------|--------7--5--4-----|
--3---------3----|-----------------|--5--------------|-----------------7--|

  Q.     E  Q       Q.     E  Q       Q.     E  Q       Q.     E  E  E
-----------------|-----------------|-----------------|------------------|
-----------------|-----------------|-----------------|------------------|
---------5-------|---------7-------|---------5-------|---------7-----7--|
--3---------3----|--5---------5----|--3---------3----|--5---------5-----|

  Q.     E  Q       Q.     E  Q       Q.     Q    E     Q    Q    Q
-----------------|-----------------|--------------7--|--5---------7----|
-----------------|---------7-------|---------5-------|-------5---------|
---------5-------|--5---------5----|--3--------------|-----------------|
--3---------3----|-----------------|-----------------|-----------------|

  Q.     Q    E     Q    Q    Q       Q.     Q    E     Q    Q    Q
--------------7--|--5--------------|-----------------|-----------------|
---------5-------|-------5---------|--------------7--|--9----7---------|
--3--------------|------------3----|---------7-------|------------7----|
-----------------|-----------------|--5--------------|-----------------|

  Q.     Q    E     Q    Q    Q
-----------------|-----------------|-------|-------|-------|-------|-------|
--------------7--|--9----7---------|-------|-------|-------|-------|-------|
---------7-------|------------7----|-------|-------|-------|-------|-------|
--5--------------|-----------------|-------|-------|-------|-------|-------|

-------|-------|-------|-------|-------|-------|-------|-------|-------|-------|
-------|-------|-------|-------|-------|-------|-------|-------|-------|-------|
-------|-------|-------|-------|-------|-------|-------|-------|-------|-------|
-------|-------|-------|-------|-------|-------|-------|-------|-------|-------|

          Q.     E  Q       Q.     E  Q       H        Q       Q    Q    Q
-------|------------7----|--9------7-------|----------------|--7--------------|
-------|---------7-------|------------7----|-----------7----|-------7---------|
-------|--5--------------|-----------------|--5-------------|------------5----|
-------|-----------------|-----------------|----------------|-----------------|

  Q.     E  Q       Q.     E  Q       H        Q       Q    Q    Q
------------7----|--9------7-------|----------------|--7--------------|
---------7-------|------------7----|-----------7----|-------7---------|
--5--------------|-----------------|--5-------------|------------5----|
-----------------|-----------------|----------------|-----------------|

  Q.     E  Q       Q.     E  Q       H        Q       Q    Q    Q
------------7----|--9------7-------|----------------|--7--------------|
---------7-------|------------7----|-----------7----|-------7---------|
--5--------------|-----------------|--5-------------|------------5----|
-----------------|-----------------|----------------|-----------------|

  Q.     E  Q       Q    Q    Q       Q.     E  E  E     E  E  H
------------5----|------------5----|------------------|-------------------||
---------5-------|-------5---------|------------------|-----------------*-||
--3--------------|--3--------------|--0------0--0-----|--0--------------*-||
-----------------|-----------------|------------------|-------------------||

Duration Legend
---------------
W - whole
H - half
Q - quarter
E - 8th
S - 16th
T - 32nd
X - 64th
. - note dotted
|-n-|  - n-tuplets
Login or Register to remove this ad.