Millennial Fair (Chrono Trigger) Bass Tab

Submitted: Dec 30, 2008 by auriplane (Last updated: Feb 09, 2009)

0
Download | Listen
Game: Chrono Trigger
Composer(s): Nobuo Uematsu, Yasunori Mitsuda, Noriko Matsueda
Style: Transcription
Series: Chrono

AutoScroll: Slow | Medium | Fast
            Chrono Trigger - Guardia Millennial Fair BASS TAB
                         Song by Yasunori Mitsuda

                  Tabbed by auriplane ([email protected])

Four-string bass, standard tuning.  This song is in 6/8 time.


            Part A

      G |--------7---|9-----7-----|------------|7-----------|
      D |0-----7-----|--------7---|0-------7---|----7---0---|
      A |------------|------------|------------|------------|
      E |------------|------------|------------|------------|

      G |--------5---|------------|------------|------------|
      D |------5-----|--------5---|------------|------------|
      A |3-----------|----5-------|------------|------------|
      E |------------|3-----------|5-----5-5---|5-----------|

            Part B

    / G |--------7---|
8x |  D |0-----7---7-|
   |  A |------------|
    \ E |------------|

            Part C

    / G |--------7---|--------7---|--------7---|--------7---|
   |  D |0-----7---7-|0-----7---7-|0-----7---7-|0-----7---7-|
   |  A |------------|------------|------------|------------|
   |  E |------------|------------|------------|------------|
   |
   |  G |------------|------------|--------7---|--------7---|
   |  D |--------7---|--------7---|0-----7---7-|0-----7---7-|
   |  A |0-----7---7-|0-----7---7-|------------|------------|
   |  E |------------|------------|------------|------------|
2x |
   |  G |--------7---|--------7---|--------7---|--------7---|
   |  D |0-----7---7-|0-----7---7-|0-----7---7-|0-----7---7-|
   |  A |------------|------------|------------|------------|
   |  E |------------|------------|------------|------------|
   |
   |  G |------------|------------|--------7---|----7-------|
   |  D |--------7---|--------7---|0-----7---7-|0-------0---|
   |  A |0-----7---7-|0-----7---7-|------------|------------|
    \ E |------------|------------|------------|------------|

            Part D

      G |------------|------------|------------|------------|
      D |------------|------------|------------|------------|
      A |------5-----|------7-----|------5-----|------7---7-|
      E |3-------3---|5-------5---|3-------3---|5-------5---|
    
      G |------------|------------|------------|------------| 
      D |------------|------7-----|----------7-|5-4---------| 
      A |------5-----|5-------5---|------7-----|----7-5---4-| 
      E |3-------3---|------------|5-----------|------------| 
    
      G |------------|------------|------------|------------|
      D |------------|------------|------------|------------|
      A |------5-----|------7-----|------5-----|------7---7-|
      E |3-------3---|5-------5---|3-------3---|5-------5---|
    
      G |------------|------------|
      D |------------|------7-----|
      A |------5-----|5-------5---|
      E |3-------3---|------------|
    
      G |----------7-|5-------7---|----------7-|5-----------|
      D |------5-----|----5-------|------5-----|----5-------|
      A |3-----------|------------|3-----------|--------3---|
      E |------------|------------|------------|------------|

      G |------------|------------|------------|------------|
      D |----------7-|9---7-------|----------7-|9---7-------|
      A |------7-----|--------7---|------7-----|--------7---|
      E |5-----------|------------|5-----------|------------|

            Part E

        Rest for 16 measures.

            Part F

      G |--------7---|9-----7-----|------------|7---5-------|
      D |0-----7-----|--------7---|0-------7---|--------7---|
      A |------------|------------|------------|------------|
      E |------------|------------|------------|------------|

      G |--------7---|9-----7-----|------------|7---5---7---|
      D |0-----7-----|--------7---|0-------7---|------------|
      A |------------|------------|------------|------------|
      E |------------|------------|------------|------------|

            Repeat back to Part A.
    
Login or Register to remove this ad.