Memories of Green (Chrono Trigger) Guitar Tab

Submitted: Oct 03, 2007 by Calebelijah (Last updated: Sep 20, 2009)

4.42857
Average: 4.4 (7 votes)
Download | Listen
Game: Chrono Trigger
Composer(s): Nobuo Uematsu, Yasunori Mitsuda, Noriko Matsueda
Style: 2 or more instruments, Transcription
Series: Chrono

Click here for a video example.

AutoScroll: Slow | Medium | Fast
Melody
     W                   W                   W
E||-------------------|-------------------|-------------------|
B||-------------------|-------------------|-------------------|
G||-------------------|-------------------|-------------------|
D||-------------------|-------------------|-------------------|
A||-------------------|-------------------|-------------------|
E||-------------------|-------------------|-------------------|

  H        Q     Q        Q.      Q.      Q        Q     Q     Q     Q
----------------------|----------13------14----|---L----------13----------|
----------------------|--16--------------------|--------------------14----|
----------------15----|------------------------|--------15----------------|
----------------------|------------------------|--------------------------|
----------------------|------------------------|--------------------------|
----------------------|------------------------|--------------------------|

   W                    Q     Q.      E   E   E      Q.      Q.      E   E
--------------------|------------------------16--|--18------18------16--15--|
---L----------------|---L----------------16------|--------------------------|
--------------------|--------13------15----------|--------------------------|
--------------------|----------------------------|--------------------------|
--------------------|----------------------------|--------------------------|
--------------------|----------------------------|--------------------------|

   W                   W                   H        Q     Q
--------------------|-------------------|----------------------|
--16----------------|-------------------|----------------------|
--------------------|-------------------|----------------15----|
--------------------|-------------------|----------------------|
--------------------|-------------------|----------------------|
--------------------|-------------------|----------------------|

   Q.      Q.      Q        Q     Q     Q     Q        W
----------13------14----|---L----------13----------|--------------------|
--16--------------------|--------------------14----|---L----------------|
------------------------|--------15----------------|--------------------|
------------------------|--------------------------|--------------------|
------------------------|--------------------------|--------------------|
------------------------|--------------------------|--------------------|

   Q     Q.      E   E   E      Q.      Q.      E   E      W
------------------------16--|--18------18------16--15--|--------------------|
---L----------------16------|--------------------------|--16----------------|
--------13------15----------|--------------------------|--------------------|
----------------------------|--------------------------|--------------------|
----------------------------|--------------------------|--------------------|
----------------------------|--------------------------|--------------------|

  W                   H        S E.   E   E      H.           E  E
-------------------|---------------------13--|--14------------------|
-------------------|-----------------16------|----------------------|
-------------------|-------------------------|----------------------|
-------------------|-------------------------|----------------------|
-------------------|-------------------------|----------------------|
-------------------|-------------------------|----------------------|

   H.           E  E      H.           E  E      H.            E  E
--16------------------|--18------------------|--19-------------L-----|
----------------------|----------------------|-----------------------|
----------------------|----------------------|-----------------------|
----------------------|----------------------|-----------------------|
----------------------|----------------------|-----------------------|
----------------------|----------------------|-----------------------|

   Q.      Q.      E   E      W                   W
--21------21------20--19--|--18----------------|-------------------|
--------------------------|--------------------|-------------------|
--------------------------|--------------------|-------------------|
--------------------------|--------------------|-------------------|
--------------------------|--------------------|-------------------|
--------------------------|--------------------|-------------------|

   H         Q     Q        W                    H         Q     Q
---L--------------------|--------------------|--14---------L----16----|
------------16----14----|--16----------------|------------------------|
------------------------|--------------------|------------------------|
------------------------|--------------------|------------------------|
------------------------|--------------------|------------------------|
------------------------|--------------------|------------------------|

   S  S  H.           E     W                   W
--13-11-13---------------|-------------------|-------------------|
-------------------------|-------------------|-------------------|
-------------------------|-------------------|-------------------|
-------------------------|-------------------|-------------------|
-------------------------|-------------------|-------------------|
-------------------------|-------------------|-------------------|

  W
--L----------------||
-------------------||
-------------------||
-------------------||
-------------------||
-------------------||

Duration Legend
---------------
W - whole
H - half
Q - quarter
E - 8th
S - 16th
T - 32nd
X - 64th
. - note dotted
|-n-|  - n-tuplets





Rhythm
      E   E   E   E   E   E   E   E      E   E   E   E   E   E   E   E
E||--14----------14--14----------14--|--14----------14--14----------14--|
B||----------12--------------12------|----------12--------------12------|
G||------15--------------15----------|------15--------------15----------|
D||----------------------------------|----------------------------------|
A||----------------------------------|----------------------------------|
E||----------------------------------|----------------------------------|

   E   E   E   E   E   E   E   E      E   E   E   E   E   E   E   E
--14----------14--14----------14--|--14----------14--14----------14--|
----------12--------------12------|----------12--------------12------|
------15--------------15----------|------15--------------15----------|
----------------------------------|----------------------------------|
----------------------------------|----------------------------------|
----------------------------------|----------------------------------|

   E   E   E   E   E   E   E   E      E   E   E   E   E   E   E   E
--14----------14--14----------14--|--14----------14--14----------14--|
----------12--------------12------|----------12--------------12------|
------15--------------15----------|------15--------------15----------|
----------------------------------|----------------------------------|
----------------------------------|----------------------------------|
----------------------------------|----------------------------------|

   E   E   E   E   E   E   E   E      E   E   E   E   E   E   E   E
--14----------14--14----------14--|--14----------14--14----------14--|
----------12--------------12------|----------12--------------12------|
------15--------------15----------|------15--------------15----------|
----------------------------------|----------------------------------|
----------------------------------|----------------------------------|
----------------------------------|----------------------------------|

   E   E   E   E   E   E   E   E      E   E   E   E   E   E   E   E
--11----------11--11----------11--|--11----------11--11----------11--|
----------11--------------11------|----------11--------------11------|
------13--------------13----------|------13--------------13----------|
----------------------------------|----------------------------------|
----------------------------------|----------------------------------|
----------------------------------|----------------------------------|

   E   E   E   E   E   E   E   E      E   E   E   E   E   E   E   E
--11----------11--11----------11--|--11----------11--11----------11--|
----------11--------------11------|----------11--------------11------|
------13--------------13----------|------13--------------13----------|
----------------------------------|----------------------------------|
----------------------------------|----------------------------------|
----------------------------------|----------------------------------|

   E   E   E   E   E   E   E   E      E   E   E   E   E   E   E   E
--14----------14--14----------14--|--14----------14--14----------14--|
----------12--------------12------|----------12--------------12------|
------15--------------15----------|------15--------------15----------|
----------------------------------|----------------------------------|
----------------------------------|----------------------------------|
----------------------------------|----------------------------------|

   E   E   E   E   E   E   E   E      E   E   E   E   E   E   E   E
--14----------14--14----------14--|--14----------14--14----------14--|
----------12--------------12------|----------12--------------12------|
------15--------------15----------|------15--------------15----------|
----------------------------------|----------------------------------|
----------------------------------|----------------------------------|
----------------------------------|----------------------------------|

   E   E   E   E   E   E   E   E      E   E   E   E   E   E   E   E
--11----------11--11----------11--|--11----------11--11----------11--|
----------11--------------11------|----------11--------------11------|
------13--------------13----------|------13--------------13----------|
----------------------------------|----------------------------------|
----------------------------------|----------------------------------|
----------------------------------|----------------------------------|

   E   E   E   E   E   E   E   E      E   E   E   E   E   E   E   E
--11----------11--11----------11--|--11----------11--11----------11--|
----------11--------------11------|----------11--------------11------|
------13--------------13----------|------13--------------13----------|
----------------------------------|----------------------------------|
----------------------------------|----------------------------------|
----------------------------------|----------------------------------|

   E   E  E   E   E   E  E   E      E   E  E   E   E   E  E   E
--11---------11--11---------11--|--11---------11--11---------11--|
----------9--------------9------|----------9--------------9------|
------11-------------11---------|------11-------------11---------|
--------------------------------|--------------------------------|
--------------------------------|--------------------------------|
--------------------------------|--------------------------------|

   E   E  E   E   E   E  E   E      E   E  E   E   E   E  E   E
--11---------11--11---------11--|--11---------11--11---------11--|
----------9--------------9------|----------9--------------9------|
------11-------------11---------|------11-------------11---------|
--------------------------------|--------------------------------|
--------------------------------|--------------------------------|
--------------------------------|--------------------------------|

  E   E  E  E  E   E  E  E     E   E  E  E  E   E  E  E
--9---------9--9---------9--|--9---------9--9---------9--|
---------7------------7-----|---------7------------7-----|
-----10-----------10--------|-----10-----------10--------|
----------------------------|----------------------------|
----------------------------|----------------------------|
----------------------------|----------------------------|

  E   E  E  E  E   E  E  E     E   E  E  E  E   E  E  E
--9---------9--9---------9--|--9---------9--9---------9--|
---------7------------7-----|---------7------------7-----|
-----10-----------10--------|-----10-----------10--------|
----------------------------|----------------------------|
----------------------------|----------------------------|
----------------------------|----------------------------|

   E   E   E   E   E   E   E   E      E   E   E   E   E   E   E   E
--11----------11--11----------11--|--14----------14--14----------14--|
----------11--------------11------|----------12--------------12------|
------13--------------13----------|------15--------------15----------|
----------------------------------|----------------------------------|
----------------------------------|----------------------------------|
----------------------------------|----------------------------------|

   E   E   E   E   E   E   E   E      E   E   E   E   E   E   E   E
--13----------13--13----------13--|--13----------13--13----------13--|
----------14--------------14------|----------14--------------14------|
------13--------------13----------|------13--------------13----------|
----------------------------------|----------------------------------|
----------------------------------|----------------------------------|
----------------------------------|----------------------------------|

   E   E   E   E   E   E   E   E      E   E   E   E   E   E   E   E
--13----------13--13----------13--|--13----------13--13----------13--||
----------14--------------14------|----------14--------------14------||
------13--------------13----------|------13--------------13----------||
----------------------------------|----------------------------------||
----------------------------------|----------------------------------||
----------------------------------|----------------------------------||

Duration Legend
---------------
W - whole
H - half
Q - quarter
E - 8th
S - 16th
T - 32nd
X - 64th
. - note dotted
|-n-|  - n-tuplets
Login or Register to remove this ad.

4 comments on Memories of Green

nice nice good job the the

nice nice good job the the way the nubers are placed at certin times can be on the confusing side but still clear in a way... by the way.... big fan :D great videos on youtube that u did there if u can can u do zeros theme? i cant do it i help in the tabs but that was on the piano im not that good enough to play on guitar but would love to watch u play it

the first part is right of

the first part is right of guitar 1 but the second have is too high. (unless its electric, acoustic can't play on fret 21.) I would think that if this was all on acoustic you have to tune the EBG to atleast a 5th above. Other than that is pretty close

Well, it is an electric

Well, it is an electric guitar part for the song. If you'd like to hear it, just go to youtube and look CalebElijah up. Most of the songs are on there.

Nice

5

Awesome!!!!!