Ads

Lab 16's Ruin (Chrono Trigger) Bass Tab

Submitted: Feb 08, 2009 by auriplane (Last updated: Jan 19, 2011)

5
Average: 5 (1 vote)
Download | Listen
Game: Chrono Trigger
Composer(s): Nobuo Uematsu, Yasunori Mitsuda, Noriko Matsueda
Style: Transcription
Series: Chrono

AutoScroll: Slow | Medium | Fast
                  Chrono Trigger - Lab 16's Ruin BASS TAB
                         Song by Yasunori Mitsuda

                  Tabbed by auriplane ([email protected])

Five-string bass, standard tuning.  

This song is in 4/4 time with an eighth note "triplet feel", and there is 
a two-beat intro before the bass comes in.

            Part A

     / G |------------|------------|
    |  D |------------|------------|
16x |  A |------7-----|5-----7---5-|
    |  E |----------7-|------------|
     \ B |5---5-------|------------|
       

            Part B
                                          
       G |------------|------------|------------|------------|
       D |------------|------------|------------|------------|
       A |------3-----|------3-----|------3-----|----------3-|
       E |------------|------------|------------|--------3---|
       B |1---1-----1-|1---1-----1-|1---1-----1-|1---1-1-----|
       
                                          
       G |------------|------------|------------|------------|
       D |------------|------------|------------|------------|
       A |------5-----|------5-----|------5-----|----------5-|
       E |------------|------------|------------|--------5---|
       B |3---3-----3-|3---3-----3-|3---3-----3-|3---3-3-----|
       
                                          
       G |------------|------------|------------|------------|
       D |------------|------------|------------|------------|
       A |------7-----|5-----7---5-|------7-----|5-----7---5-|
       E |----------7-|------------|----------7-|------------|
       B |5---5-------|------------|5---5-------|------------|
       
                                          
       G |------------|------------|------------|------------|
       D |------------|------------|------------|------------|
       A |------7-----|5-----7---5-|------------|------------|
       E |----------7-|------------|------------|------------|
       B |5---5-------|------------|8-8-5---8-8-|5-----------|

Login or Register to remove this ad.

5 comments on Lab 16's Ruin

Sweet :) Could you put gp

5

Sweet :)
Could you put gp file for that one?

Yeah, okay. Give me a bit.

Yeah, okay. Give me a bit. I should probably change it from saying 6/8, which is kind of silly, to 4/4 with eighth note "triplet feel".

Okay, there's a GP5 file in

Okay, there's a GP5 file in the download link now. I put in the drums and synth choir parts too.

Thank you very much :] [email protected]_v !

Thank you very much :]
[email protected]_v !

:D!!

:D!!