Kingdom Trial (Chrono Trigger) Bass Tab

Submitted: Feb 08, 2009 by auriplane

5
Average: 5 (1 vote)
Download | Listen
Game: Chrono Trigger
Composer(s): Nobuo Uematsu, Yasunori Mitsuda, Noriko Matsueda
Style: Transcription
Series: Chrono

AutoScroll: Slow | Medium | Fast
                  Chrono Trigger - Kingdom Trial BASS TAB
                         Song by Yasunori Mitsuda

                  Tabbed by auriplane ([email protected])

Four-string bass, standard tuning.


      Part A (4/4 time)

   H   H    H   H    H   H    H   H    H   H    H   H    H   H    H   H    
G |--------|--------|--------|--------|--------|--------|--------|--------|
D |--------|--------|--------|--------|--------|--------|--------|--------|
A |3---3---|3-------|3---3---|3-------|3---3---|3-------|3-------|--------|
E |--------|----3---|--------|----3---|--------|----3---|----1---|3---3---|
   
   H   H    H   H    H   H    H   H    H   H    H   H    H   H    H   H    
G |--------|--------|--------|--------|--------|--------|--------|--------|
D |--------|--------|--------|--------|--------|--------|--------|--------|
A |3---3---|3-------|3-------|3-------|3---3---|3-------|3-------|--------|
E |--------|----3---|----3---|----3---|--------|----3---|----1---|3---3---|
                        
   H   H    H   H    H   H    H   H    
G |--------|--------|--------|--------|
D |--------|--------|--------|--------|
A |3---3---|3-------|3-------|3-------|
E |--------|----3---|----3---|----3---|


      Part B (3/4 time)

                  - Rest for ten measures -

   H.    (H.)    H.    (H.)    H.    (H.)    H.    (H.)
G |------|------|------|------|------|------|------|------|
D |------|------|------|------|------|------|------|------|
A |------|------|5-----(5)----|------|------|------|------|
E |5-----(5)----|------|------|5-----(5)----|6-----(6)----|

   H.    (H.)    H.    (H.)    H.    (H.)    Q Q. E Q H   
G |------|------|------|------|------|------|4-4--4|3-3---|
D |------|------|------|------|------|------|------|------|
A |5-----(5)----|------|------|------|------|------|------|
E |------|------|1-----(1)----|4-----(4)----|------|------|

   Q Q. E Q H    Q Q. E Q H    Q Q. E Q H    H.    (H.)  
G |4-4--4|3-3---|2-2--2|1-1---|2-2--2|1-1---|------|------|
D |------|------|------|------|------|------|------|------|
A |------|------|------|------|------|------|------|------|
E |------|------|------|------|------|------|3-----(3)----|

      Repeat back to Part A.
Login or Register to remove this ad.