Guardia Forest (Chrono Trigger) Bass Tab

Submitted: Sep 08, 2008 by auriplane (Last updated: Sep 08, 2008)

5
Average: 5 (5 votes)
Download | Listen
Game: Chrono Trigger
Composer(s): Nobuo Uematsu, Yasunori Mitsuda, Noriko Matsueda
Style: Transcription
Series: Chrono

This song is also called Secret of Forest

AutoScroll: Slow | Medium | Fast
                Chrono Trigger - Secret of Forest BASS TAB
                  "Secret of Forest" by Yasunori Mitsuda

                Tabbed by auriplane ([email protected])


This tab is spread out to help you see the rhythms a little
better, since the rhythms are actually the hardest part of playing
this song.  Best song in CT :-)

Four-string bass, standard tuning.

Repeat 3x:

G |--------------------------------|--------------------------------|
D |--------------------------------|------------------------4-------|
A |------------------------------4-|--------------------------------|
E |2-------------------------------|2-------------------------------|

G |--------------------------------|--------------------------------|
D |3-------------------------------|--------------------------------|
A |------------------------------3-|--------------------------------|
E |--------------------------------|1-------------------------1---2-|

G |--------------------------------|--------------------------------|
D |--------------------------------|------------------------4-------|
A |----------------------------4---|--------------------------------|
E |--------------------------------|2-----2-----2-------------------|

G |--------------------------------|--------------------------------|
D |3-----------------------------3-|--------------------------------|
A |--------------------------3-----|----------------------------3-\0|
E |--------------------------------|1-----1-------1-----------------|

No repeat:

G |----------------3---------------|--------------------------------|
D |1-------------------------1-----|----------------4---------------|
A |----------------------------4---|2-----------------------2-------|
E |--------------------------------|--------------------------------|

G |------------------------3----\0-|--------------------------------|
D |----------------3---------------|----------------3---------------|
A |1-------------------------------|1-----------------------1-------|
E |--------------------------------|--------------------------------|

G |----------------3---------------|--------------------------------|
D |1-------------------------1-----|----------------4---------------|
A |----------------------------4---|2-----------------------2-------|
E |--------------------------------|--------------------------------|

G |------------------------5-------|--------------------------------|
D |----------------5---------------|3-------------------------------|
A |3-------------------------------|----------------3---------------|
E |--------------------------------|--------------------------------|

Repeat 2x:

G |----------------------5---------|------------2-------------------|
D |------------8-----------8-------|------------------5-------------|
A |------8-------------------8-----|------5-----------------5-------|
E |6---------------------------6---|3---------------------------3---|
                                 
G |------------10----8-------------|--------------------------------|
D |------8-----------------8-------|------10------------------------|
A |6---------------------------6---|8-----------8---------8-118-----|
E |--------------------------------|----------------------------8---|

No repeat:

G |------------8---6-------5-------|--------------------------------|
D |------6-------------------------|3-----------3-------------------|
A |4-------------------------------|------3-------------------------|
E |--------------------------------|----------------1---------------|
Login or Register to remove this ad.

3 comments on Guardia Forest

Guitarr plx! =D

5

Guitarr plx! =D

Good stuff.

5

Definitely one of the best tracks. Well done.

Agreed, definitely one of

5

Agreed, definitely one of CT's best songs, and one of the best bass lines :) Great job!