Gato's Song (Chrono Trigger) Guitar Tab

Submitted: Jan 17, 2009 by snester94 (Last updated: Dec 30, 2009)

0
Download | Listen
Game: Chrono Trigger
Composer(s): Nobuo Uematsu, Yasunori Mitsuda, Noriko Matsueda
Style: Transcription
Series: Chrono

AutoScroll: Slow | Medium | Fast
Title: Gato's Song
Name of Game: Chrono Trigger
Composed by: Yasunori Mitsuda
Tabber: snester94
Tabbed on: January 16th, 2009

/=slide

E|----3---------1-----------1----1----3----------3----5----3----1------------|
B|----3---------1-----3-----1----1----3----------3----5----3----1--------3---|
G|--------------------2--------------------------------------------------2---|
D|---------------------------------------------------------------------------|
A|---------------------------------------------------------------------------|
E|---------------------------------------------------------------------------|

|---1----1---------------1/3-----1-------------------------------------------|
|---1----1-------3-------1/3-----1-------3-----1-----3---------1-----3-------|
|----------------2-----------------------2-----0-----2---------0-----2-------|
|----------------------------------------------------------------------------|
|----------------------------------------------------------------------------|
|----------------------------------------------------------------------------|

|----1-----3-----5----3----1----3-----------3--------1----------1------------|
|----1-----3-----5----3----1----3-----------3--------1----3-----1------------|
|---------------------------------------------------------2------------------|
|----------------------------------------------------------------------------|
|----------------------------------------------------------------------------|
|----------------------------------------------------------------------------|

|---1----3--------3----5----3----1----------1---1----3-----1-----------------|
|---1----3--------3----5----3----1-------3--1---1----3-----1----------3------|
|----------------------------------------2----------------------------2------|
|----------------------------------------------------------------------------|
|----------------------------------------------------------------------------|
|----------------------------------------------------------------------------|

|-----------------------------1-----3----5---3---1-----3---------------------|
|---1----3------1-----3-------1-----3----5---3---1-----3---------------------|
|---0----2------0-----2------------------------------------------------------|
|----------------------------------------------------------------------------|
|----------------------------------------------------------------------------|
|----------------------------------------------------------------------------|
Login or Register to remove this ad.