Frog's Theme (Chrono Trigger) Guitar Tab

Submitted: Oct 03, 2007 by Calebelijah (Last updated: Sep 20, 2009)

4.5
Average: 4.5 (10 votes)
Download | Listen
Game: Chrono Trigger
Composer(s): Nobuo Uematsu, Yasunori Mitsuda, Noriko Matsueda
Style: 2 or more instruments, Transcription
Series: Chrono

Click here for a video example.

AutoScroll: Slow | Medium | Fast
**Note** - The MP3 attached is of the accompaniment played by CalebElijah.


Gtr1
      S  S T  S T  S  S T  S T  S  S T  S T  S  S T  S T
E||------------------------------------------------------|
B||--12-11---12---14-12---11---12-11---12------11---12---|
G||-----------------------------------------13-----------|
D||------------------------------------------------------|
A||------------------------------------------------------|
E||------------------------------------------------------|

   S  S T  S T  S  S T  S T  S  S T  S T  S  S T  S T
------------------------------------------------------|
----------11---12-11---12---14-11--------11-----------|
--11-13-----------------------------13------13---11---|
------------------------------------------------------|
------------------------------------------------------|
------------------------------------------------------|

   S  S T  S T  S  S T  S T  S  S T  S T  S  S T  S T
------------------------------------------------------|
--12-11---12---14-12---11---12-11---12------11---12---|
-----------------------------------------13-----------|
------------------------------------------------------|
------------------------------------------------------|
------------------------------------------------------|

   S  S T  S T  S  S T  S T  S  S T  S T  S  S T  S T
------------------------------------------------------|
----------11---12-11---12---14-11--------11-----------|
--11-13-----------------------------13------13---11---|
------------------------------------------------------|
------------------------------------------------------|
------------------------------------------------------|

   S  S T  S T  S  S T  S T  S  S T  S T  S  S T  S T
------------------------------------------------------|
--12-11---12---14-12---11---12-11---12------11---12---|
-----------------------------------------13-----------|
------------------------------------------------------|
------------------------------------------------------|
------------------------------------------------------|

   S  S T  S T  S  S T  S T  S  S T  S T  S  S T  S T
------------------------------------------------------|
----------11---12-11---12---14-11--------11-----------|
--11-13-----------------------------13------13---11---|
------------------------------------------------------|
------------------------------------------------------|
------------------------------------------------------|

   S  S T  S T  S  S T  S T  S  S T  S T  S  S T  S T
------------------------------------------------------|
--12-11---12---14-12---11---12-11---12---14-12--------|
-------------------------------------------------14---|
------------------------------------------------------|
------------------------------------------------------|
------------------------------------------------------|

   |---3---|   |---3---|                 |---3---|   |---3---|
   E   E   E   E   E   E   E  Q.         E   E   E   E   E   E   Q     Q
-------------------------------------|--------------------------------16----|
-------------------------------------|--16---L--16--16----------16----------|
--13--11--13--13--11--13--13---------|------------------16--18--------------|
-------------------------------------|--------------------------------------|
-------------------------------------|--------------------------------------|
-------------------------------------|--------------------------------------|

   H         Q.      E      W
------------------------|--------------------|
--19--------16----------|--------------------|
--------------------16--|--------------------|
------------------------|--18----------------|
------------------------|--------------------|
------------------------|--------------------|

   |---3---|   |---3---|   |---3---|   |---3---|
   E   E   E   E   E   E   E   E   E   E   E   E
--------------------------------------------------|
----------------------------------16------16--19--|
------15--16--15--16--18--16--18------18----------|
--18----------------------------------------------|
--------------------------------------------------|
--------------------------------------------------|

   |---3---|   |---3---|
   E   E   E   E   E   E   Q     Q        Q.      S  S  Q     Q
--------------------------------16----|--18------19-18-16----14----|
--16---L--16--16----------16----------|----------------------------|
------------------16--18--------------|----------------------------|
--------------------------------------|----------------------------|
--------------------------------------|----------------------------|
--------------------------------------|----------------------------|

   W                    H         H
--16----------------|--16--------18--------|
--------------------|----------------------|
--------------------|----------------------|
--------------------|----------------------|
--------------------|----------------------|
--------------------|----------------------|

   |---3--|   |---3---|                  |---3--|   |---3---|
   E  E   E   E   E   E   Q     Q        E  E   E   E   E   E   H
--19--L--19--19--18--16--------------|--16--L--16--16--------------------|
-------------------------19----16----|-----------------19--17--16--------|
-------------------------------------|-----------------------------------|
-------------------------------------|-----------------------------------|
-------------------------------------|-----------------------------------|
-------------------------------------|-----------------------------------|

   |---3--|   |---3---|
   E  E   E   E   E   E   Q     Q        H         H
--19--L--19--19--18--19--21----18----|--16--------18--------|
-------------------------------------|----------------------|
-------------------------------------|----------------------|
-------------------------------------|----------------------|
-------------------------------------|----------------------|
-------------------------------------|----------------------|

   |---3--|   |---3---|                  |---3--|   |---3---|
   E  E   E   E   E   E   Q     Q        E  E   E   E   E   E   H
--19--L--19--19--18--16--------------|--16--L--16--16--------------------|
-------------------------19----16----|-----------------19--17--16--------|
-------------------------------------|-----------------------------------|
-------------------------------------|-----------------------------------|
-------------------------------------|-----------------------------------|
-------------------------------------|-----------------------------------|

   |---3--|   |---3---|                  |---3---|   |---3---|
   E  E   E   E   E   E   Q     Q        E   E   E   E   E   E   E  Q.
--19--L--19--19--18--19--21----18----|--16--14--16--16--14--16--16---------||
-------------------------------------|-------------------------------------||
-------------------------------------|-------------------------------------||
-------------------------------------|-------------------------------------||
-------------------------------------|-------------------------------------||
-------------------------------------|-------------------------------------||

Duration Legend
---------------
W - whole
H - half
Q - quarter
E - 8th
S - 16th
T - 32nd
X - 64th
. - note dotted
|-n-|  - n-tuplets



Gtr2
     S S T S T Q    Q    E.  S    S S T S T H.
E||----------------------------|-------------------------|
B||----------------------------|-------------------------|
G||----------------------3---4-|--3-----3----------------|
D||--6-4---6--------6----------|----6-------4------------|
A||------------6---------------|-------------------------|
E||----------------------------|-------------------------|

  S S T S T Q    Q    E.  S    S S T S T H        Q
----------------------------|--------------------------|
----------------------------|--------------------------|
----------------------3---4-|--3-4---6---3-------------|
--6-4---6--------6----------|---------------------4----|
------------6---------------|--------------------------|
----------------------------|--------------------------|

  S S T S T Q    Q    E.  S    S S T S T H.
----------------------------|-------------------------|
----------------------------|-------------------------|
----------------------3---4-|--3-----3----------------|
--6-4---6--------6----------|----6-------4------------|
------------6---------------|-------------------------|
----------------------------|-------------------------|

                              |--3--|  |--3--|
  S S T S T Q    Q    Q       E  E  E  E  E  E  E  Q.
---------------------------|------------------------------|
---------------------------|------------------------------|
------------3----4----3----|------------------------------|
--6-4---6------------------|--6--4--6--6--4--6--6---------|
---------------------------|------------------------------|
---------------------------|------------------------------|

  Q    E  Q.     Q       Q    E  Q.     Q       Q    E  Q.     Q
----------------------|----------------------|----------------------|
-------0---------0----|-------0---------0----|----------------------|
----------------------|----------------------|-------1---------1----|
----------------------|----------------------|----------------------|
----------------------|----------------------|----------------------|
----------------------|----------------------|----------------------|

  Q    E  Q.     Q       Q    E  Q.     Q       Q    E  Q.     Q
----------------------|----------------------|----------------------|
----------------------|-------0---------0----|----------------------|
-------3---------3----|----------------------|-------3---------3----|
----------------------|----------------------|----------------------|
----------------------|----------------------|----------------------|
----------------------|----------------------|----------------------|

                                    |--3--|          3     3
  Q    E  Q.     Q       Q    E  E  E  E  E  Q       E  S. X S Q    Q    Q
----------------------|----------------------4----|---------------------------|
----------------------|-------------------0-------|----------------------0----|
-------1---------1----|-------1--------1----------|--1--1------1--------------|
----------------------|-------------3-------------|---------------------------|
----------------------|---------------------------|---------------------------|
----------------------|---------------------------|---------------------------|

            |--3--|
  Q    Q    E  E  E  Q       Q    E  Q.     Q       H        H
---------------------4----|----------------------|--------------------|
------------------4-------|----------------------|--------------------|
---------------4----------|-------1---------3----|--1--------3--------|
-------6----6-------------|----------------------|--------------------|
--------------------------|----------------------|--------------------|
--------------------------|----------------------|--------------------|

  Q    Q    Q    Q       Q    Q    Q    Q       Q    Q    Q    Q
----------------------|----------------------|----------------------|
-------0---------0----|-------0--------------|-------0--------------|
----------------------|-----------------1----|----------------------|
----------------------|----------------------|-----------------4----|
----------------------|----------------------|----------------------|
----------------------|----------------------|----------------------|

  |--3--|  |--3--|
  E  E  E  E  E  E  E  Q.
------------------------------||
------------------------------||
------------------------------||
--6--4--6--6--4--6--6---------||
------------------------------||
------------------------------||

Duration Legend
---------------
W - whole
H - half
Q - quarter
E - 8th
S - 16th
T - 32nd
X - 64th
. - note dotted
|-n-|  - n-tuplets

Guitar 3

                                   untitled                                     

Gtr3
     E  E  E  E  E  E  Q       E  E  E  E  E  E  Q
E||--7-----7-----7-----7----|--6-----6-----6-----6----|
B||--9-----9-----9-----9----|--7-----7-----7-----7----|
G||--8-----8-----8-----8----|--6-----6-----6-----6----|
D||-------------------------|-------------------------|
A||-------------------------|-------------------------|
E||-------------------------|-------------------------|

  E  E  E  E  E  E  Q       E  E  E  E  E  E  Q       E  E  E  E  E  E  Q
--7-----7-----7-----7----|--6-----6-----6----------|--7-----7-----7-----7----|
--9-----9-----9-----9----|--7-----7-----7-----7----|--9-----9-----9-----9----|
--9-----9-----9-----9----|--6-----6-----6-----6----|--8-----8-----8-----8----|
-------------------------|--------------------8----|-------------------------|
-------------------------|-------------------------|-------------------------|
-------------------------|-------------------------|-------------------------|

  E  E  E  E  E  E  Q       E  E  E  E  E  E  Q
--6-----6-----6-----6----|--4-----4-----6-----6----|
--7-----7-----7-----7----|--5-----5-----7-----7----|
--6-----6-----6-----6----|--4-----4-----6-----6----|
-------------------------|-------------------------|
-------------------------|-------------------------|
-------------------------|-------------------------|

  |--3--|  |--3--|
  E  E  E  E  E  E  E  Q.        Q    E  Q.     Q       Q    E  Q.     Q
--4-----4--4-----4--4---------|-------7---------7----|-------7---------7----|
--4-----4--4-----4--4---------|-------9---------9----|-------7---------7----|
--4-----4--4-----4--4---------|-------8---------8----|-------8---------8----|
------------------------------|----------------------|----------------------|
------------------------------|----------------------|----------------------|
------------------------------|----------------------|----------------------|

  Q    E  Q.     Q       Q    E  Q.     Q       Q    E  Q.     Q
-------4---------4----|-------6---------6----|-------7---------7----|
-------5---------5----|-------7---------7----|-------9---------9----|
-------4---------4----|-------6---------6----|-------8---------8----|
----------------------|----------------------|----------------------|
----------------------|----------------------|----------------------|
----------------------|----------------------|----------------------|

  Q    E  Q.     Q       Q    E  Q.     Q       Q    E  Q.     Q
-------6---------6----|-------4---------4----|-------4---------4----|
-------7---------7----|-------5---------5----|-------6---------6----|
-------6---------6----|-------4---------4----|-------6---------6----|
----------------------|----------------------|----------------------|
----------------------|----------------------|----------------------|
----------------------|----------------------|----------------------|

  Q    Q    Q    Q       Q    E  Q.     Q       Q    E  Q.     Q
-------4---------7----|-------4---------4----|-------0---------2----|
-------5---------7----|-------5---------4----|-------0---------2----|
-------4---------8----|-------4---------4----|-------1---------3----|
----------------------|----------------------|----------------------|
----------------------|----------------------|----------------------|
----------------------|----------------------|----------------------|

  H        H           Q    Q    Q    Q       Q    Q    Q    Q
--4--------6--------|-------0---------2----|-------0---------4----|
--6--------7--------|-------0---------4----|-------0---------4----|
--6--------6--------|-------9---------4----|-------1---------4----|
--------------------|----------------------|----------------------|
--------------------|----------------------|----------------------|
--------------------|----------------------|----------------------|

                         |--3--|  |--3--|
  Q    Q    Q    Q       E  E  E  E  E  E  E  Q.
-------0---------2----|--4-----4--4-----4--4---------||
-------0---------2----|--4-----4--4-----4--4---------||
-------1---------3----|--4-----4--4-----4--4---------||
----------------------|------------------------------||
----------------------|------------------------------||
----------------------|------------------------------||

Duration Legend
---------------
W - whole
H - half
Q - quarter
E - 8th
S - 16th
T - 32nd
X - 64th
. - note dotted
|-n-|  - n-tuplets
Login or Register to remove this ad.

3 comments on Frog's Theme

complicated much

complicated much

this is not complicated...

this is not complicated... it's in depth :) great tab!

Great!

4

I would only change these 2 first "parts" for the 2nd guitar into this:

Gtr2
E||---------------------------------------------------------
B||---------------------------------------------------------
G||--------------3-4---3----------------------3---4-3-6-4-3--
D||-6-4-6---6------6---4------6-4--6---6--------------------
A||---------6------------------------------6----------------
E||---------------------------------------------------------