Frog's Theme (Chrono Trigger) Bass Tab

Submitted: Oct 03, 2007 by Calebelijah (Last updated: Sep 20, 2009)

5
Average: 5 (2 votes)
Download | Listen
Game: Chrono Trigger
Composer(s): Nobuo Uematsu, Yasunori Mitsuda, Noriko Matsueda
Style: Transcription
Series: Chrono

Click here for a video example.

AutoScroll: Slow | Medium | Fast
                                   untitled                                     

Bass
     Q    Q    Q    Q       Q    Q    Q    Q       Q    Q    Q    Q
G||----------------------|----------------------|----------------------|
D||----------------------|----------------------|----------------------|
A||----------------------|----------------------|----------------------|
E||--4----4----4----4----|--2----2----2----2----|--0----0----0----0----|

  Q    Q    Q    Q       Q    Q    Q    Q       Q    Q    Q    Q
----------------------|----------------------|----------------------|
----------------------|----------------------|----------------------|
----------------------|----------------------|----------------------|
--2----2----2----2----|--4----4----4----4----|--2----2----2----2----|

                         |--3--|  |--3--|
  Q    Q    Q    Q       E  E  E  E  E  E  E  Q.        Q    Q    Q    Q
----------------------|------------------------------|----------------------|
----------------------|------------------------------|----------------------|
----------------------|------------------------------|----------------------|
--0----0----2----2----|--4--2--4--4--2--4--4---------|--4----4----4----4----|

  Q    Q    Q    Q       Q    Q    Q    Q       Q    Q    Q    Q
----------------------|----------------------|----------------------|
----------------------|----------------------|----------------------|
--2----2----2----2----|----------------------|----------------------|
----------------------|--0----0----0----0----|--2----2----2----2----|

  Q    Q    Q    Q       Q    Q    Q    Q       Q    Q    Q    Q
----------------------|----------------------|----------------------|
----------------------|----------------------|----------------------|
----------------------|----------------------|----------------------|
--4----4----4----4----|--2----2----2----2----|--0----0----0----0----|

  Q    Q    Q    Q       Q    Q    Q    Q       Q    Q    Q    Q
----------------------|----------------------|----------------------|
----------------------|----------------------|----------------------|
----------------------|------------2----2----|----------------------|
--1----1----1----1----|--0----0--------------|--0----0----4----4----|

  Q    Q    Q    Q       Q    Q    Q    Q       Q    Q    Q    Q
----------------------|----------------------|----------------------|
----------------------|----------------------|----------------------|
----------------------|----------------------|----------------------|
--0----0----2----2----|--1----1----2----2----|--0----0----2----2----|

                                                |--3--|  |--3--|
  Q    Q    Q    Q       Q    Q    Q    Q       E  E  E  E  E  E  E  Q.
----------------------|----------------------|------------------------------||
----------------------|----------------------|------------------------------||
----------------------|----------------------|------------------------------||
--0----0----4----4----|--0----0----2----2----|--4--2--4--4--2--4--4---------||

Duration Legend
---------------
W - whole
H - half
Q - quarter
E - 8th
S - 16th
T - 32nd
X - 64th
. - note dotted
|-n-|  - n-tuplets
Login or Register to remove this ad.