Frog's Theme (Chrono Trigger) Bass Tab

Submitted: Feb 08, 2009 by auriplane (Last updated: Apr 14, 2010)

5
Average: 5 (1 vote)
Download | Listen
Game: Chrono Trigger
Composer(s): Nobuo Uematsu, Yasunori Mitsuda, Noriko Matsueda
Style: Arrangement
Series: Chrono

This song is also called Kaeru

AutoScroll: Slow | Medium | Fast
                  Chrono Trigger - Frog's Theme BASS TAB
                         Song by Yasunori Mitsuda

                  Tabbed by auriplane ([email protected])

This song doesn't actually have a bass part.  So, I tabbed the
timpani part, which is in the bass register so it works well :-)

Also, this song has an introduction on the soundtrack, but for
some reason the introduction isn't in the game itself.  So, if
you're playing along with the SNES, skip the intro.

Four-string bass, standard tuning.  This song is in 6/8 time.


            Intro

         E.    E.     E.    S S S  E.    E.     E.    S S S
      G |------------|------------|------------|------------|
      D |6-----6-----|6-----6-6-6-|------------|------------|
      A |------------|------------|9-----9-----|9-----9-9-9-|
      E |------------|------------|------------|------------|
                                                
         E.    E.     E.    S S S  E.    E.     E.    S S S
      G |------------|------------|------------|------------|
      D |------------|------------|------------|------------|
      A |7-----7-----|7-----7-7-7-|9-----9-----|9-----9-9-9-|
      E |------------|------------|------------|------------|
                                                
         E.    E.     E.    S S S  E.    E.     E.    S S S
      G |------------|------------|------------|------------|
      D |6-----6-----|6-----6-6-6-|------------|------------|
      A |------------|------------|9-----9-----|9-----9-9-9-|
      E |------------|------------|------------|------------|
                                                
         E.    E.     E.    S S S  S S S S S S  Q.
      G |------------|------------|------------|------------|
      D |------------|------------|6-6-6-6-6-6-|6-----------|
      A |7-----7-----|9-----9-9-9-|------------|------------|
      E |------------|------------|------------|------------|

            Part A

         E.    S S S  E.    E.     E.    S S S  E.    E.
      G |------------|------------|------------|------------|
      D |6-----6-6-6-|6-----6-----|9-----9-9-9-|9-----9-----|
      A |------------|------------|------------|------------|
      E |------------|------------|------------|------------|
                                                
         E.    S S S  E.    E.     E.    S S S  E.    E.
      G |------------|------------|------------|------------|
      D |------------|------------|------------|------------|
      A |7-----7-7-7-|7-----7-----|9-----9-9-9-|9-----9-----|
      E |------------|------------|------------|------------|
                                                
         E.    S S S  E.    E.     E.    S S S  E.    E.
      G |------------|------------|------------|------------|
      D |6-----6-6-6-|6-----6-----|------------|------------|
      A |------------|------------|9-----9-9-9-|9-----9-----|
      E |------------|------------|------------|------------|
                                                
         E.    S S S  E.    E.     E.    S S S  E.    E.
      G |------------|------------|------------|------------|
      D |------------|------------|------------|------------|
      A |7-----7-7-7-|7-----7-----|6-----6-6-6-|6-----6-----|
      E |------------|------------|------------|------------|
                                                
            Part B                              
                                                
         E.    E   S  E.    E.     E.    E   S  E.    E.
      G |------------|------------|------------|------------|
      D |------------|------------|------------|6-----6-----|
      A |7-----7---7-|9-----9-----|7-----7---7-|------------|
      E |------------|------------|------------|------------|

         E.    E   S  E.    E.     E.    E.     E.    E.
      G |------------|------------|------------|------------|
      D |------------|------------|------------|------------|
      A |7-----7---7-|9-----9-----|------------|6-----6-----|
      E |------------|------------|9-----9-----|------------|

         E.    E   S  E.    E.     E.    E.     E.    E.
      G |------------|------------|------------|------------|
      D |------------|------------|------------|6-----6-----|
      A |7-----7---7-|9-----9-----|7-----7-----|------------|
      E |------------|------------|------------|------------|

         E.    E   S  E.    E.     E.    S S S  Q.
      G |------------|------------|------------|------------|
      D |------------|------------|6-----6-6-6-|6-----------|
      A |7-----7---7-|9-----9-----|------------|------------|
      E |------------|------------|------------|------------|

            Repeat back to Part A.
Login or Register to remove this ad.

1 comment on Frog's Theme

Sounds great!

5

Sounds great!