Victory Fanfare (Chrono Trigger) Bass Tab

Submitted: Feb 08, 2009 by auriplane (Last updated: Dec 04, 2010)

0
Download | Listen
Game: Chrono Trigger
Composer(s): Nobuo Uematsu, Yasunori Mitsuda, Noriko Matsueda
Style: Transcription
Series: Chrono

AutoScroll: Slow | Medium | Fast
                   Chrono Trigger - Fanfare 1 BASS TAB
                         Song by Yasunori Mitsuda

                  Tabbed by auriplane ([email protected])

Four-string bass, standard tuning.
 
      Intro

   Q   Q   Q   Q    Q   Q   Q   Q    Q   Q   Q   Q   
G |----------------|----------------|----------------|
D |----------------|----------------|----------------|
A |5---5---3---3---|------------3---|5---5---5---5---|
E |----------------|6---6---6-------|----------------|
                                          
      Part A

   E E E E E E E E  E E E E E E E E  E E E E E E E E  E E E E E E E E 
G |----------------|--7---7---7---7-|----------------|--7---7---7---7-|
D |--5---5---7---7-|----------------|--5---5---7---7-|----------------|
A |----------------|5---5---5---5---|----------------|5---5---5---5---|
E |3---3---5---5---|----------------|3---3---5---5---|----------------|

   E E E E E E E E  E E E E E E E E  E E E E E E E E  E E E E E E E E 
G |----------------|--7---7---7---5-|--3---3---5---5-|--7---7---7---7-|
D |--5---5---7---7-|----------------|----------------|----------------|
A |----------------|5---5---5---3---|1---1---3---3---|5---5---5---5---|
E |3---3---5---5---|----------------|----------------|----------------|

      Repeat Part A forever.
Login or Register to remove this ad.