Epoch ~Wings That Cross Time~ (Chrono Trigger) Guitar Tab

Submitted: Jan 19, 2009 by snester94 (Last updated: Dec 04, 2010)

3.5
Average: 3.5 (2 votes)
Download | Listen
Game: Chrono Trigger
Composer(s): Nobuo Uematsu, Yasunori Mitsuda, Noriko Matsueda
Style: 2 or more instruments, Transcription
Series: Chrono

AutoScroll: Slow | Medium | Fast
Title: Epoch's Theme
Name of Game: Chrono Trigger
Composed by: Yasunori Mitsuda
Tabber: snester94
Tabbed on: January 18th, 2009

/=slide
*=repeat
~=let ring

This song uses 1st and 2nd endings,
it is suggested that this tab is read through before playing.

The Lead Guitar and Bass Guitar parts correspond,
when the 3rd line of the Lead Guitar part is played
the 3rd line of the Bass Guitar part is also played.

 Lead Guitar (Acoustic/Electric)
e||----------------------------------------------------------------------------------------|
B||----------------------------------------------------------------------------------------|
G||----3---2---3---2-----0-------0-------0--------------------------0~------------0---0~~--|
D||----3-----------2---------3---0---3------3-----0-----3-------0---0~---------0------0~~--|
A||----5-----------3-------------1----------3---------------3---3---3~------3---------2~~--|
E||-----------------------------------------5----------------------------------------------|

e||----------------------------------------------------------------------------------------|
B||*---------------------------------------------------------------------------------------|
G||---------------------------------------0------------------------------------------------|
D||----------------------0---3------3----------0---0-------2/0-----------------------------|
A||*--------1---1---3-------------------------------------------3-------2---3~~~~----------|
E||----------------------------------------------------------------------------------------|

e|-----------------------------------------------------------------------------------------|
B|-----------------------------------------------------------------------------------1~~---|
G|----------------------------------------0----2--------2~~----------0~------0---2---3~~---|
D|-----------------------0---3------3--------------3----3~~----------1~--------------------|
A|----------1---1---3----------------------------------------------------------------------|
E|-----------------------------------------------------------------------------------------|

e|-----------------------------------------------------------------------------------------|
B|---3~~-------------------1~--------------------------------------------------------------|
G|---2~~-------------2-----2~------0----------0---2~~-------------------------------0------|
D|---3~~-------------------2~-----------3---------3~~---------0----3------5~------------3--|
A|------------------------------------------------------------------------6~---------------|
E|-----------------------------------------------------------------------------------------|
							______1st_Ending___________________
e|------------------------------------------------------|----------------------------------|
B|------------------------------------------------------|---8~~~------------------7~~-----*|
G|------------------------------------------------------|---7~~~------------------7~~------|
D|---------0~~---------3~~-------2-----0----------------|---7~~~------------------7~~------|
A|-------------------------------------------3-----5----|---------------------------------*|
E|------------------------------------------------------|----------------------------------|
 ______2nd_Ending___________________
e|-----------------------------------------------------------------------------------------|
B|---8~~~-------------------------------7~~~-------------------------3~--------------------|
G|---7~~~-------------------------------7~~~--------------------------------------2----3~--|
D|---7~~~-------------------------------7~~~-----------------------------------------------|
A|-----------------------------------------------------------------------------------------|
E|-----------------------------------------------------------------------------------------|

e|------------------------------------------------------------6----------------------------|
B|---------------------------------------------------0--2--4-----7---------------------4---|
G|-----------------1/3-----3--------1/3---3-------3----------------------3----1------------|
D|-------------------------------------------------------------------------------4---------|
A|-----------------------------------------------------------------------------------------|
E|-----------------------------------------------------------------------------------------|

e|-----1----2----1~------------------------------------------------------------------------|
B|-------------------------4-----2~--------------------2~-----------------2/3~~/4----------|
G|----------------------------------------------3------------------------------------------|
D|-----------------------------------------------------------------------------------------|
A|-----------------------------------------------------------------------------------------|
E|-----------------------------------------------------------------------------------------|

e|-----------------------------------------------------------------------------------------|
B|------------------------------------1----4---4~---------4/6---7----6-----4-----------4---|
G|------3---1---0~-----------1----3-----------------------------------------------6--------|
D|-----------------------------------------------------------------------------------------|
A|-----------------------------------------------------------------------------------------|
E|-----------------------------------------------------------------------------------------|

e|--------------------------------------------------4--------------------------------------|
B|------4-----------------------4---6---7---6---7---------------------2/3~~~/4~~~----------|
G|----------3---1~----------6------------------------------3---1---3-----------------------|
D|-----------------------------------------------------------------------------------------|
A|-----------------------------------------------------------------------------------------|
E|-----------------------------------------------------------------------------------------|

e|----------------------------------------------------------------------------------------||
B|----------------------------------------------------------------------------------------||
G|---3---2---3---2-----0---------0--------0--------------------------0~------------0--0~--||
D|---3-----------2----------3----0----3------3----0----3---------0---0~--------0------0~--||
A|---5-----------3---------------1-----------3---------------3---3---3~----3----------2~--||
E|-------------------------------------------5--------------------------------------------||



 Bass Guitar
G||----------------------------------------------------------------------------------------|
D||----------------------------------------------------------------------------------------|
A||----------------------------------------------------------------------------------------|
E||---3-------3---1-------1----0----0-------------------3---3---3---3------3---3---3---3---|
B||-------------------------------------3-------3------------------------------------------|

G|-----------------------------------------------------------------------------------------|
D|*----------------------------------------------------------------------------------------|
A|-----------------------------------------------------------------------------------------|
E|*----3----3----3----3-----3----3----3----3-----5---5------5---5-----5---5---5------5-----|
B|-----------------------------------------------------------------------------------------|

G|-----------------------------------------------------------------------------------------|
D|------------------------------------------------1----1----1----1-----1----1----1----1----|
A|-----------------------------------------------------------------------------------------|
E|-----3----3----3----3-----3----3----3----3-----------------------------------------------|
B|-----------------------------------------------------------------------------------------|

G|-----------------------------------------------------------------------------------------|
D|-----------------------------------------------0----0----0----0/1----------1----1----1---|
A|-----1----1----1----1-----0----0----0----0-----------------------------------------------|
E|-----------------------------------------------------------------------------------------|
B|-----------------------------------------------------------------------------------------|
						______1st_Ending___________________________
G|----------------------------------------------|------------------------------------------|
D|----------------------------------------------|-5--------------------4------------------*|
A|-----1----1----1----1-----3----3----3----3----|-5----5----5----5-----5----5----5----5----|
E|----------------------------------------------|-----------------------------------------*|
B|----------------------------------------------|------------------------------------------|
 ______2nd_Ending_______________
G|-----------------------------------------------------------------------------------------|
D|-----5----------------------------------------------4------------------------------------|
A|-----5----------5----------5----------5-------------5----------5----------5----------5---|
E|-----------------------------------------------------------------------------------------|
B|-----------------------------------------------------------------------------------------|

G|----8---8---8--------8-----8----8--------8-----11--11--11------11----11--11--11------11--|
D|----6---6---6--------6-----6----6--------6-----13--13--13------13----13--13--13------13--|
A|----8---8---8--------8-----8----8--------8-----14--14--14------14----14--14--14------14--|
E|-----------------------------------------------------------------------------------------|
B|-----------------------------------------------------------------------------------------|

G|----13--13--13-------13----13---13-------13----3---3---3-------3-----3---3---3-------3---|
D|----13--13--13-------13----13---13-------13----6---6---6-------6-----6---6---6-------6---|
A|----13--13--13-------13----13---13-------13----6---6---6-------6-----6---6---6-------6---|
E|-----------------------------------------------------------------------------------------|
B|-----------------------------------------------------------------------------------------|

G|----8---8---8--------8-----8----8--------8-----11--11--11------11----11--11--11------11--|
D|----6---6---6--------6-----6----6--------6-----13--13--13------13----13--13--13------13--|
A|----8---8---8--------8-----8----8--------8-----14--14--14------14----14--14--14------14--|
E|-----------------------------------------------------------------------------------------|
B|-----------------------------------------------------------------------------------------|

G|----13----13--13-----13----13--13--13----13---------3--3--3------3---------3------3------|
D|----13----13--13-----13----13--13--13----13---------6--6--6------6---------6------6------|
A|----13----13--13-----13----13--13--13----13---------6--6--6------6---------6------6------|
E|-----------------------------------------------------------------------------------------|
B|-----------------------------------------------------------------------------------------|

G|----------------------------------------------------------------------------------------||
D|----------------------------------------------------------------------------------------||
A|----------------------------------------------------------------------------------------||
E|---3------3---1----------1-------0-------0----------------------3----3----3----3----3~~-||
B|---------------------------------------------3----------3-------------------------------||
Login or Register to remove this ad.

1 comment on Epoch ~Wings That Cross Time~

Man, this is beautiful. It's

5

Man, this is beautiful. It's a little hard to play, but when you do it sounds great! Good job!