End of Time (Chrono Trigger) Guitar Tab

Submitted: Feb 23, 2008 by dma83 (Last updated: Sep 11, 2009)

0
Download | Listen
Game: Chrono Trigger
Composer(s): Nobuo Uematsu, Yasunori Mitsuda, Noriko Matsueda
Style: 2 or more instruments, Transcription
Series: Chrono

AutoScroll: Slow | Medium | Fast
SNES - Chrono Trigger - Brink of Time
Tabbed by Steve Havens, [email protected]

|--------12------------12------------12-----7----|
|-15-----12-----15-----12-----15-----12-----7----|
|-16-----12-----16-----12-----16-----12-----8----|
|-17-----14-----17-----14-----17-----14-----9----|
|-17------------17------------17-----------------|
|-15------------15------------15-----------------|


|-------------12----------------------12---------|
|-15----------12----------15----------12---------|
|-16----------12----------16----------12---------|
|-17----------14----------17----------14---------|
|-17----------------------17---------------------|
|-15----------------------15---------------------|
|                                                |
|-----19----------------------19-----------------|
|-17----------------------17---------------------|
|---------16--19------16----------16--19------16-|
|------------------------------------------------|
|------------------------------------------------|
|------------------------------------------------|


|-------------12-----------7---------|
|-15----------12-----------7---------|
|-16----------12-----------8---------|
|-17----------14-----------9---------|
|-17---------------------------------|
|-15---------------------------------|
|                                    |
|-----19----------------------19-----|
|-17------------------17-------------|
|---------16--19--16------16---------|
|------------------------------------|
|------------------------------------|
|------------------------------------|


|---------------12----------------------------12---------------|
|-15------------12--------------15------------12---------------|
|-16------------12--------------16------------12---------------|
|-17------------14--------------17------------14---------------|
|-17----------------------------17-----------------------------|
|-15----------------------------15-----------------------------|
|                                                              |
|-----19----------------------------19-------------------------|
|-17----------------------------17-----------------------------|
|-----------16--19----16------------------16--19------16-------|
|--------------------------------------------------------------|
|--------------------------------------------------------------|
|--------------------------------------------------------------|
|                                                              |
|--------------------------------------------------------------|
|---------------------------15------------------------------15-|
|-----16-14-16--------16-14---------16-14-16----------16-14----|
|--------------------------------------------------------------|
|--------------------------------------------------------------|
|--------------------------------------------------------------|


|---------------12-----------------7-----------------------|
|-15------------12-----------------7-----------------------|
|-16------------12-----------------8-----------------------|
|-17------------14-----------------9-----------------------|
|-17-------------------------------------------------------|
|-15-------------------------------------------------------|
|                                                          |
|-----19------------------------------19-------------------|
|-17--------------------------17---------------------------|
|-----------16--19--16------------16-----------------------|
|----------------------------------------------------------|
|----------------------------------------------------------|
|----------------------------------------------------------|
|                                                          |
|----------------------------------------------------------|
|-------------------------15----------------------------17-|
|-----16-14-16------16-14-------------16-14-16----16-14----|
|----------------------------------------------------------|
|----------------------------------------------------------|
|----------------------------------------------------------|


|-------14--14--------14--14--------14--14--------14--14--|
|---------------------------------------------------------|
|---------------------------------------------------------|
|---------------------------------------------------------|
|---------------------------------------------------------|
|-12------------12------------12------------12------------|
|                                                         |
|---------------------------------------------------------|
|---------------------------------------------------------|
|---------------------------------------------------------|
|---------------------------------------------------------|
|--7------------------------------------------------------|
|---------------------------------------------------------|


|-------14--14--------14--14----------14--14---------14--14--|
|------------------------------------------------------------|
|------------------------------------------------------------|
|------------------------------------------------------------|
|------------------------------------------------------------|
|-12------------12--------------12-------------12------------|
|                                                            |
|------------------------------------------------------------|
|------------------------------------------------------------|
|------------------------------------------------------------|
|------------------------------------------------------------|
|--7---------------------------------------------------------|
|------------------------------------------------------------|
|                                                            |
|------------------------------------------------------------|
|-12--------14--15--------14-15-12--------10-12--------------|
|-----------------------------------------------9------------|
|------------------------------------------------------------|
|------------------------------------------------------------|
|------------------------------------------------------------|
|                                                            |
|-19-------------------------------------------17--------19--|
|------------------------------------------------------------|
|------------------------------------------------------------|
|------------------------------------------------------------|
|------------------------------------------------------------|
|------------------------------------------------------------|


|-------12--12--------12--12--------12--12--------12--12--|
|---------------------------------------------------------|
|---------------------------------------------------------|
|---------------------------------------------------------|
|---------------------------------------------------------|
|-10------------10------------10------------10------------|
|                                                         |
|---------------------------------------------------------|
|---------------------------------------------------------|
|---------------------------------------------------------|
|---------------------------------------------------------|
|--5------------------------------------------------------|
|---------------------------------------------------------|
|                                                         |
|---------------10--------12--10------------10----12--10--|
|-----------10--------------------------------------------|
|---------------------------------------------------------|
|-12------------------------------------------------------|
|---------------------------------------------------------|
|---------------------------------------------------------|
|                                                         |
|-17--------------------------19------------17------------|
|---------------------------------------------------------|
|---------------------------------------------------------|
|---------------------------------------------------------|
|---------------------------------------------------------|
|---------------------------------------------------------|


|-------14--14--------14--14----------14--14---------14--14--|
|------------------------------------------------------------|
|------------------------------------------------------------|
|------------------------------------------------------------|
|------------------------------------------------------------|
|-12------------12--------------12-------------12------------|
|                                                            |
|------------------------------------------------------------|
|------------------------------------------------------------|
|------------------------------------------------------------|
|------------------------------------------------------------|
|--7---------------------------------------------------------|
|------------------------------------------------------------|
|                                                            |
|------------------------------------------------------------|
|-12--------14--15--------14-15-12--------10-12--------------|
|-----------------------------------------------9------------|
|------------------------------------------------------------|
|------------------------------------------------------------|
|------------------------------------------------------------|
|                                                            |
|-19----------------------------22-------------19------------|
|------------------------------------------------------------|
|------------------------------------------------------------|
|------------------------------------------------------------|
|------------------------------------------------------------|
|------------------------------------------------------------|


|-------12--12--------12--12--------12--12--------12--12--|
|---------------------------------------------------------|
|---------------------------------------------------------|
|---------------------------------------------------------|
|---------------------------------------------------------|
|-10------------10------------10------------10------------|
|                                                         |
|---------------------------------------------------------|
|---------------------------------------------------------|
|---------------------------------------------------------|
|---------------------------------------------------------|
|--5------------------------------------------------------|
|---------------------------------------------------------|
|                                                         |
|---------------10--------12--10------------10----12--13--|
|-----------10--------------------------------------------|
|---------------------------------------------------------|
|-12------------------------------------------------------|
|---------------------------------------------------------|
|---------------------------------------------------------|
|                                                         |
|-17--------------------------19------------17------------|
|---------------------------------------------------------|
|---------------------------------------------------------|
|---------------------------------------------------------|
|---------------------------------------------------------|
|---------------------------------------------------------|


|-----10--10-------10--10--------10--10--------10--10--|
|------------------------------------------------------|
|------------------------------------------------------|
|------------------------------------------------------|
|------------------------------------------------------|
|--8-----------8------------8---------------8----------|
|                                                      |
|------------------------------------------------------|
|------------------------------------------------------|
|------------------------------------------------------|
|------------------------------------------------------|
|--3---------------------------------------------------|
|------------------------------------------------------|
|                                                      |
|-17------18--20-------22--17--------15-17-------------|
|------------------------------------------15------17--|
|------------------------------------------------------|
|------------------------------------------------------|
|------------------------------------------------------|
|------------------------------------------------------|
|                                                      |
|-15------17--18-------20--22--------------18----------|
|------------------------------------------------------|
|------------------------------------------------------|
|------------------------------------------------------|
|------------------------------------------------------|
|------------------------------------------------------|


|-------10--10-------10--10-------12--12--11-----------|
|-------10--10-------10--10-------12--12--12-----------|
|------------------------------------------------------|
|------------------------------------------------------|
|------------------------------------------------------|
|--5------------5------------7-------------------------|
|                                                      |
|------------------------------------------------------|
|------------------------------------------------------|
|------------------------------------------------------|
|------------------------------------------------------|
|--0-------------------------2-------------------------|
|------------------------------------------------------|
|                                                      |
|------------------------------------------------------|
|---------------------------17-------------------------|
|-14---------------------------------------------------|
|------------------------------------------------------|
|------------------------------------------------------|
|------------------------------------------------------|
|                                                      |
|-17------------------------14-------------------------|
|------------------------------------------------------|
|------------------------------------------------------|
|------------------------------------------------------|
|------------------------------------------------------|
|------------------------------------------------------|
Login or Register to remove this ad.