End of Time (Chrono Trigger) Guitar Tab

Submitted: Dec 08, 2007 by Stamen47 (Last updated: Sep 26, 2009)

5
Average: 5 (9 votes)
Download | Listen
Game: Chrono Trigger
Composer(s): Nobuo Uematsu, Yasunori Mitsuda, Noriko Matsueda
Style: Arrangement, Fingerstyle
Series: Chrono

AutoScroll: Slow | Medium | Fast
                                  End of Time                                   


     ^               ^               ^               ^             
     H.              H.              H.              H.            
E||---------------|---------------|---------------|---------------|
B||--3------------|--5------------|--3------------|--5------------|
G||--2------------|--4------------|--2------------|--4------------|
D||--5------------|--7------------|--5------------|--7------------|
A||---------------|---------------|---------------|---------------|
E||---------------|---------------|---------------|---------------|


  ^               ^               ^                             
  H.              H.              H.              H.            
---------------|---------------|---------------|---------------|
--3------------|--5------------|---------------|---------------|
--2------------|--4------------|--4------------|--L------------|
--5------------|--7------------|--4------------|--L------------|
---------------|---------------|--6------------|--L------------|
---------------|---------------|--7------------|--L------------|


  ^                 ^                ^                 ^              
  Q    Q    Q       H        Q       Q    Q    Q       H        Q     
--0----7---------|----------------|--0----7---------|----------------|
------------0----|-----------0----|------------0----|-----------0----|
--0--------------|--7-------------|--0--------------|--7-------------|
--7--------------|--7-------------|--7--------------|--7-------------|
--5--------------|--7-------------|--5--------------|--7-------------|
-----------------|----------------|-----------------|----------------|


  ^                 ^                 ^                              
  Q    Q    Q       Q    Q    Q       Q    H           H.            
--0----7---------|------------0----|-------7--------|--L------------|
------------0----|-------0---------|----------------|---------------|
--0--------------|--7--------------|--4-------------|---------------|
--7--------------|--7--------------|--4-------------|--L------------|
--5--------------|--7--------------|--6-------------|--L------------|
-----------------|-----------------|--7-------------|--L------------|


  ^                   ^                   ^                   ^                 
  Q    E  E  E  E     Q    E  E  E  E     Q    E  E  E  E     Q    E  E  E  E   
--0----7-----------|-------------------|--0----7-----------|-------------------|
-------------0-----|-------------0-----|-------------0-----|-------------0-----|
--0----------------|--7----------------|--0----------------|--7----------------|
--7----------------|--7----------------|--7----------------|--7----------------|
--5----------------|--7-------0--7-----|--5----------------|--7-------0--7-----|
-------7--5--7-----|-------7-----------|-------7--5--7-----|-------7-----------|


  ^                   ^                   ^                                     
  Q    E  E  E  E     Q    E  E  E  E     Q    E  E  E  E     Q    E  E  E  E   
--0----7-----------|-------------0-----|-------------------|-------------------|
-------------0-----|-------0-----------|-------------------|-------------------|
--0----------------|--7----------------|--4----------------|-------------------|
--7----------------|--7----------------|--4----------------|-------------4-----|
--5----------------|--7-------0--7-----|--6----------6-----|-------------------|
-------7--5--7-----|-------7-----------|--7----7--5--------|-------7--5--------|


  Q    Q    Q       Q    Q    Q       Q    Q    Q       Q    Q    Q     
-----------------|-----------------|-----------------|-----------------|
-----------------|-----------------|-----------------|-----------------|
-------0----0----|-------0----0----|-------0----0----|-------0----0----|
-----------------|-----------------|-----------------|-----------------|
-------9----9----|-------9----9----|-------9----9----|-------9----9----|
--0--------------|--0--------------|--0--------------|--0--------------|


  Q    Q    Q        Q    E  E   Q       Q    E   E  Q       Q    Q    Q     
--7---------9----|--10-------9--10----|--7-----------7----|--0--------------|
-----------------|--------------------|----------10-------|-----------------|
-------0----0----|--------0------0----|-------0------0----|-------0----0----|
-----------------|--------------------|-------------------|-----------------|
-------9----9----|--------9------9----|-------9------9----|-------9----9----|
--0--------------|---0----------------|--0----------------|--0--------------|


  Q    Q     Q        Q     Q      Q        Q    Q    Q     
-------0-----0----|--10-----------15----|--12--------------|
--6---------10----|---------------------|------------------|
------------------|--------10/----------|--10----9----9----|
--0---------------|---0------------0----|---0--------------|
------------------|---------------------|------------------|
------------------|---------------------|------------------|


   Q     Q     Q       Q    Q    Q        Q    E  E   Q       Q    E   E  Q     
--12----13----12----|--7---------9----|--10-------9--10----|--7-----------7----|
--------------------|-----------------|--------------------|----------10-------|
--10-----9-----9----|-------0----0----|--------0------0----|-------0------0----|
---0----------------|-----------------|--------------------|-------------------|
--------------------|-------9----9----|--------9------9----|-------9------9----|
--------------------|--0--------------|---0----------------|--0----------------|


  Q    Q    Q       Q    Q     Q        Q     Q      Q        Q    Q    Q     
--0--------------|-------0-----0----|--10-----------15----|--12--------------|
-----------------|--6---------10----|---------------------|------------------|
-------0----0----|------------------|--------10/----------|--10----9----2----|
-----------------|--0---------------|---0------------0----|---0--------------|
-------9----9----|------------------|---------------------|------------------|
--0--------------|------------------|---------------------|------------------|


  Q    Q    Q       Q    Q    Q       Q    Q     Q        Q    E  E   Q     
--0----0----0----|--5---------6----|--8---------10----|--------------------|
-------6----8----|-----------------|------------------|--10-------8--10----|
-----------------|-----------------|------------------|--------------------|
--0--------------|-------0----0----|-------0-----0----|--------0------0----|
-----------------|-------6----6----|-------6-----6----|--------6------6----|
-----------------|--8--------------|--8---------------|---8----------------|


  Q    Q    Q       Q    Q    Q       E  E  Q    Q       Q    Q    Q     
-----------------|--0--------------|------------------|-----------------|
------------8----|-----------------|------------------|--7--------------|
--7--------------|-----------------|------------------|-------9----9----|
-------0----0----|-------0----0----|--------0----0----|-----------------|
-------6----6----|-------7----7----|--------7----7----|-------9----9----|
--8--------------|--5--------------|------------------|--7--------------|


  ^                                                               
  H.              H.              H.              H.              
---------------|---------------|---------------|----------------||
---------------|--L------------|--L------------|--L-------------||
--8------------|--L------------|--L------------|--L------------*||
--9------------|--L------------|--L------------|--L------------*||
--9------------|--L------------|--L------------|--L-------------||
--7------------|--L------------|--L------------|--L-------------||




Duration Legend
---------------
W - whole
H - half
Q - quarter
E - 8th
S - 16th
T - 32nd
X - 64th
. - note dotted
|-n-|  - n-tuplets


Tablature Legend
----------------
L - tied note
x - dead note
g - grace note
(n) - ghost note
> - accentuded note
NH - natural harmonic
AH - artificial harmonic
TH - tapped harmonic
SH - semi harmonic
PH - pitch harmonic
h - hammer on
p - pull off
/ -  slide into from below or out of upwards
\ -  slide into from above or out of downwards

Login or Register to remove this ad.

6 comments on End of Time

Wow. Very nice and thorough

Wow. Very nice and thorough sounding of the actual song.
Good job.

Nice!

Nice!

Excellent job stamen, your

Excellent job stamen, your tabs rock!

perfect

5

perfect

awesome

5

good stuff man

Tough but fun!

Impeccable work Stamen!