End of Time (Chrono Trigger) Guitar Tab

Submitted: Oct 03, 2007 by Calebelijah (Last updated: Sep 20, 2009)

4.25
Average: 4.3 (4 votes)
Download | Listen
Game: Chrono Trigger
Composer(s): Nobuo Uematsu, Yasunori Mitsuda, Noriko Matsueda
Style: 2 or more instruments, Transcription
Series: Chrono

Click here for a video example.

AutoScroll: Slow | Medium | Fast
Track 1
      ^                ^                ^                ^
      H.               H.               H.               H.
E||--10------------|--12------------|--10------------|--12------------|
B||--10------------|--12------------|--10------------|--12------------|
G||--10------------|--12------------|--10------------|--12------------|
D||--12------------|--14------------|--12------------|--14------------|
A||----------------|----------------|----------------|----------------|
E||----------------|----------------|----------------|----------------|

   ^                ^               ^
   H.               H.              H.              H.
--10------------|--12------------|--7------------|--L------------|
--10------------|--12------------|--7------------|--L------------|
--10------------|--12------------|--8------------|--L------------|
--12------------|--14------------|--9------------|--L------------|
----------------|----------------|---------------|---------------|
----------------|----------------|---------------|---------------|

   ^                ^                ^                ^
   H.               H.               H.               H.
--10------------|--12------------|--10------------|--12------------|
--10------------|--12------------|--10------------|--12------------|
--10------------|--12------------|--10------------|--12------------|
--12------------|--14------------|--12------------|--14------------|
----------------|----------------|----------------|----------------|
----------------|----------------|----------------|----------------|

   ^                ^               ^
   H.               H.              H.              H.
--10------------|--12------------|--7------------|--L------------|
--10------------|--12------------|--7------------|--L------------|
--10------------|--12------------|--8------------|--L------------|
--12------------|--14------------|--9------------|--L------------|
----------------|----------------|---------------|---------------|
----------------|----------------|---------------|---------------|

   ^                ^                ^                ^
   H.               H.               H.               H.
--10------------|--12------------|--10------------|--12------------|
--10------------|--12------------|--10------------|--12------------|
--10------------|--12------------|--10------------|--12------------|
--12------------|--14------------|--12------------|--14------------|
----------------|----------------|----------------|----------------|
----------------|----------------|----------------|----------------|

   ^                ^               ^
   H.               H.              H.              H.
--10------------|--12------------|--7------------|--L------------|
--10------------|--12------------|--7------------|--L------------|
--10------------|--12------------|--8------------|--L------------|
--12------------|--14------------|--9------------|--L------------|
----------------|----------------|---------------|---------------|
----------------|----------------|---------------|---------------|

                   Q     Q     Q        Q     Q     Q        Q     Q     Q
---------------|--------15----15----|--------15----15----|--------15----15----|
---------------|--------19----19----|--------19----19----|--------19----19----|
---------------|--------------------|--------------------|--------------------|
---------------|--------------------|--------------------|--------------------|
---------------|--19----------------|--19----------------|--19----------------|
---------------|--------------------|--------------------|--------------------|

   Q     Q     Q        Q     Q     Q        Q     Q     Q
--------15----15----|--------15----15----|--------15----15----|
--------19----19----|--------19----19----|--------19----19----|
--------------------|--------------------|--------------------|
--------------------|--------------------|--------------------|
--19----------------|--19----------------|--19----------------|
--------------------|--------------------|--------------------|

   Q     Q     Q        Q     Q     Q        Q     Q     Q
--------15----15----|--------15----15----|--------13----13----|
--------19----19----|--------19----19----|--------17----17----|
--------------------|--------------------|--------------------|
--------------------|--------------------|--------------------|
--19----------------|--19----------------|--17----------------|
--------------------|--------------------|--------------------|

   Q     Q     Q        Q     Q     Q        Q     Q     Q
--------13----13----|--------13----13----|--------13----13----|
--------17----17----|--------17----17----|--------17----17----|
--------------------|--------------------|--------------------|
--------------------|--------------------|--------------------|
--17----------------|--17----------------|--17----------------|
--------------------|--------------------|--------------------|

   Q     Q     Q        Q     Q     Q        Q     Q     Q
--------15----15----|--------15----15----|--------15----15----|
--------19----19----|--------19----19----|--------19----19----|
--------------------|--------------------|--------------------|
--------------------|--------------------|--------------------|
--19----------------|--19----------------|--19----------------|
--------------------|--------------------|--------------------|

   Q     Q     Q        Q     Q     Q        Q     Q     Q
--------15----15----|--------13----13----|--------13----13----|
--------19----19----|--------17----17----|--------17----17----|
--------------------|--------------------|--------------------|
--------------------|--------------------|--------------------|
--19----------------|--17----------------|--17----------------|
--------------------|--------------------|--------------------|

   Q     Q     Q        Q     Q     Q        Q     Q     Q
--------13----13----|--------13----13----|--------11----11----|
--------17----17----|--------17----17----|--------15----15----|
--------------------|--------------------|--------------------|
--------------------|--------------------|--------------------|
--17----------------|--17----------------|--15----------------|
--------------------|--------------------|--------------------|

   Q     Q     Q        Q     Q     Q        Q     Q     Q
--------11----11----|--------11----11----|--------11----11----|
--------15----15----|--------15----15----|--------15----15----|
--------------------|--------------------|--------------------|
--------------------|--------------------|--------------------|
--15----------------|--15----------------|--15----------------|
--------------------|--------------------|--------------------|

   Q     Q     Q        Q     Q     Q        Q     Q     Q        H.
--------10----10----|--------10----10----|--------12----12----|--11------------|
--------10----10----|--------10----10----|--------12----12----|--12------------|
--------------------|--------------------|--------------------|----------------|
--------------------|--------------------|--------------------|----------------|
--12----------------|--12----------------|--14----------------|--14------------|
--------------------|--------------------|--------------------|----------------|

   H.
---L------------||
---L------------||
----------------||
----------------||
---L------------||
----------------||

Duration Legend
---------------
W - whole
H - half
Q - quarter
E - 8th
S - 16th
T - 32nd
X - 64th
. - note dotted
|-n-|  - n-tuplets





Track 2
E||-------|-------|-------|-------|-------|-------|-------|-------|
B||-------|-------|-------|-------|-------|-------|-------|-------|
G||-------|-------|-------|-------|-------|-------|-------|-------|
D||-------|-------|-------|-------|-------|-------|-------|-------|
A||-------|-------|-------|-------|-------|-------|-------|-------|
E||-------|-------|-------|-------|-------|-------|-------|-------|

   Q     Q     Q        H         Q        Q     Q     Q        H         Q
--------19----------|------------------|--------19----------|------------------|
--17----------------|--15--------------|--17----------------|--15--------------|
--------------16----|------------16----|--------------16----|------------16----|
--------------------|------------------|--------------------|------------------|
--------------------|------------------|--------------------|------------------|
--------------------|------------------|--------------------|------------------|

   Q     Q     Q        Q     Q     Q        Q     H            H.
--------19----------|--------------------|--------19--------|---L------------|
--17----------------|--15----------17----|------------------|----------------|
--------------16----|--------16----------|--16--------------|----------------|
--------------------|--------------------|------------------|----------------|
--------------------|--------------------|------------------|----------------|
--------------------|--------------------|------------------|----------------|

   Q     Q     Q        H         Q        Q     Q     Q        H         Q
--------19----------|------------------|--------19----------|------------------|
--17----------------|--15--------------|--17----------------|--15--------------|
--------------16----|------------16----|--------------16----|------------16----|
--------------------|------------------|--------------------|------------------|
--------------------|------------------|--------------------|------------------|
--------------------|------------------|--------------------|------------------|

   Q     Q     Q        Q     Q     Q        Q     H            H.
--------19----------|--------------------|--------19--------|---L------------|
--17----------------|--15----------17----|------------------|----------------|
--------------16----|--------16----------|--16--------------|----------------|
--------------------|--------------------|------------------|----------------|
--------------------|--------------------|------------------|----------------|
--------------------|--------------------|------------------|----------------|

---------------|---------------|---------------|---------------|---------------|
---------------|---------------|---------------|---------------|---------------|
---------------|---------------|---------------|---------------|---------------|
---------------|---------------|---------------|---------------|---------------|
---------------|---------------|---------------|---------------|---------------|
---------------|---------------|---------------|---------------|---------------|

---------------|---------------|---------------|---------------|---------------|
---------------|---------------|---------------|---------------|---------------|
---------------|---------------|---------------|---------------|---------------|
---------------|---------------|---------------|---------------|---------------|
---------------|---------------|---------------|---------------|---------------|
---------------|---------------|---------------|---------------|---------------|

---------------|---------------|---------------|---------------|---------------|
---------------|---------------|---------------|---------------|---------------|
---------------|---------------|---------------|---------------|---------------|
---------------|---------------|---------------|---------------|---------------|
---------------|---------------|---------------|---------------|---------------|
---------------|---------------|---------------|---------------|---------------|

---------------|---------------|---------------|---------------|---------------|
---------------|---------------|---------------|---------------|---------------|
---------------|---------------|---------------|---------------|---------------|
---------------|---------------|---------------|---------------|---------------|
---------------|---------------|---------------|---------------|---------------|
---------------|---------------|---------------|---------------|---------------|

---------------|---------------|---------------|---------------|---------------|
---------------|---------------|---------------|---------------|---------------|
---------------|---------------|---------------|---------------|---------------|
---------------|---------------|---------------|---------------|---------------|
---------------|---------------|---------------|---------------|---------------|
---------------|---------------|---------------|---------------|---------------|

---------------|---------------|---------------|---------------|
---------------|---------------|---------------|---------------|
---------------|---------------|---------------|---------------|
---------------|---------------|---------------|---------------|
---------------|---------------|---------------|---------------|
---------------|---------------|---------------|---------------|

---------------||
---------------||
---------------||
---------------||
---------------||
---------------||

Duration Legend
---------------
W - whole
H - half
Q - quarter
E - 8th
S - 16th
T - 32nd
X - 64th
. - note dotted
|-n-|  - n-tuplets





Track 3
E||-------|-------|-------|-------|-------|-------|-------|-------|-------|
B||-------|-------|-------|-------|-------|-------|-------|-------|-------|
G||-------|-------|-------|-------|-------|-------|-------|-------|-------|
D||-------|-------|-------|-------|-------|-------|-------|-------|-------|
A||-------|-------|-------|-------|-------|-------|-------|-------|-------|
E||-------|-------|-------|-------|-------|-------|-------|-------|-------|

                                                          Q     E   E   Q
-------|-------|-------|-------|-------|-------|-------|---------------------|
-------|-------|-------|-------|-------|-------|-------|-------12--10--12----|
-------|-------|-------|-------|-------|-------|-------|---------------------|
-------|-------|-------|-------|-------|-------|-------|---------------------|
-------|-------|-------|-------|-------|-------|-------|---------------------|
-------|-------|-------|-------|-------|-------|-------|---------------------|

  Q     E   E   Q       Q     E   E   Q       Q     E   E   Q
---------------12----|---------------------|---------------12----|
-------12--10--------|-------12--10--12----|-------12--10--------|
---------------------|---------------------|---------------------|
---------------------|---------------------|---------------------|
---------------------|---------------------|---------------------|
---------------------|---------------------|---------------------|

  Q     E   E   Q       Q     E   E   Q       Q     E   E   Q
---------------------|---------------12----|---------------11----|
-------12--10--12----|-------12--10--------|-------12--10--------|
---------------------|---------------------|---------------------|
---------------------|---------------------|---------------------|
---------------------|---------------------|---------------------|
---------------------|---------------------|---------------------|

  Q     E   E   Q
---------------14----|-------|-------|-------|-------|-------|
-------12--10--------|-------|-------|-------|-------|-------|
---------------------|-------|-------|-------|-------|-------|
---------------------|-------|-------|-------|-------|-------|
---------------------|-------|-------|-------|-------|-------|
---------------------|-------|-------|-------|-------|-------|

   H         Q        Q.      E   Q        Q.      E   Q        H.
------------------|--------------------|--------------------|----------------|
--12--------14----|--15------14--15----|--12----------12----|----------------|
------------------|--------------------|----------14--------|----------------|
------------------|--------------------|--------------------|--14------------|
------------------|--------------------|--------------------|----------------|
------------------|--------------------|--------------------|----------------|

   H         Q        H         Q        H.               Q     Q     Q
------------------|------------15----|--12------------|--12----13----12----|
------------------|--15--------------|----------------|--------------------|
------------14----|------------------|----------------|--------------------|
--12--------------|------------------|----------------|--------------------|
------------------|------------------|----------------|--------------------|
------------------|------------------|----------------|--------------------|

   H         Q        Q.      E   Q        Q.      E   Q        H.
------------------|--------------------|--------------------|----------------|
--12--------14----|--15------14--15----|--12----------12----|----------------|
------------------|--------------------|----------14--------|----------------|
------------------|--------------------|--------------------|--14------------|
------------------|--------------------|--------------------|----------------|
------------------|--------------------|--------------------|----------------|

   H         Q        H         Q        H.               Q     Q     Q
------------------|------------15----|--12------------|--12----13----15----|
------------------|--15--------------|----------------|--------------------|
------------14----|------------------|----------------|--------------------|
--12--------------|------------------|----------------|--------------------|
------------------|------------------|----------------|--------------------|
------------------|------------------|----------------|--------------------|

   H         Q        H         Q        Q.      E   Q        H         Q
--17--------18----|--20--------22----|--17----------17----|------------------|
------------------|------------------|----------20--------|------------20----|
------------------|------------------|--------------------|--19--------------|
------------------|------------------|--------------------|------------------|
------------------|------------------|--------------------|------------------|
------------------|------------------|--------------------|------------------|

   H.               H.               H.               H.
----------------|----------------|----------------|----------------|
--17------------|---L------------|--19------------|---L------------|
----------------|----------------|----------------|----------------|
----------------|----------------|----------------|----------------|
----------------|----------------|----------------|----------------|
----------------|----------------|----------------|----------------|

---------------||
---------------||
---------------||
---------------||
---------------||
---------------||

Duration Legend
---------------
W - whole
H - half
Q - quarter
E - 8th
S - 16th
T - 32nd
X - 64th
. - note dotted
|-n-|  - n-tuplets
Login or Register to remove this ad.

3 comments on End of Time

q porra eh essa? Oo

q porra eh essa?
Oo

Genial!!!!! yeaaah!!!

Genial!!!!! yeaaah!!!

This sounds AWESOME! I wish I

5

This sounds AWESOME! I wish I had the right stuff to play this things.
Thank you for sharing! It must have given you a lot of work!