Ads

Corridors of Time (Chrono Trigger) Guitar Tab

Submitted: Oct 03, 2007 by Stamen47 (Last updated: Sep 19, 2009)

4.545455
Average: 4.5 (22 votes)
Download | Listen
Game: Chrono Trigger
Composer(s): Nobuo Uematsu, Yasunori Mitsuda, Noriko Matsueda
Style: Arrangement, Fingerstyle
Series: Chrono

This song is also called Zeal

AutoScroll: Slow | Medium | Fast
Corridors of Time
Chrono Trigger
Composed by Yasunori Mitsuda

Guitar
      S S S S S S S S S S S S S S S S    S S S S S S S S S S S S S S S S
E||-------------------2-2-------------|--0-0-------------2-2--------------||
B||---------------2-2-------------2-2-|--------------2-2-------------2-2--||
G||*----------4-4-------------4-4-----|----------4-4-------------4-4-----*||
D||*--0-0-4-4-------------4-4---------|------4-4-------------4-4---------*||
A||-----------------------------------|-----------------------------------||
D||-----------------------------------|-----------------------------------||

   Q.     E  Q    E  E     Q.     E  Q    E  E     Q.     E  Q    E  E
---2--------------------|--2--------------------|--0--------------------|
---5--------------------|--2--------------------|--2--------------------|
*--2--------------------|-----------------------|-----------------------|
*--0-----------------0--|--------------------0--|--------------------4--|
---0--------------0-----|-----------------0-----|-----------------4-----|
---0------0-------------|--0------0-------------|--4------4-------------|

  Q.     E  Q    E  E     E.  S E  E  Q    E  E     Q.     S S E.  S E  S S
-----------------------|-------------------------|--------------------------|
--2--------------------|-------------------------|-----------------0--------|
--2--------------------|--1---1-L----------------|-----------1-2--------2-1-|
-----------------------|-----------4--4----------|---------4------------0---|
--------------------4--|-------------------0--5--|-------------------0------|
--4------4-------2-----|--0--------0-------------|--0------0----------------|

  E.  E.  E  Q    E  E     E  E  E  Q.     E  E     E.  E.  E  Q    E  E
------------------4--0--|--------0---------------|------------------------|
------------------------|--4--------2------------|------------------------|
------------------------|-----4------------------|------------------------|
--4---4---2--2----------|------------------------|--6---6---4--4----------|
--4-------4-------------|--4--------4---------4--|------------------0--5--|
------------------------|------------------6-----|--0-------0-------------|

  Q.     E  E.  S E  E     E.  E.  Q.     E  E     Q.     E  Q    E  E
------------------------|-----------------------|------------0----------|
---------------------0--|--0--------------------|-----------------2-----|
------------1---2-------|------6---6------------|---------6----------2--|
---------4-----------0--|--------------------4--|-----------------------|
------------------0-----|-----------------4-----|-----------------------|
--0------0--------------|--4-------4------------|--4------4-------2-----|

  Q    E  Q    E  E  E     Q.     E  Q    E  E     E.  E.  Q.     E  E
---------------2--------|--0--------------------|-----------------------|
---------------2--------|--2--------------2-----|--0--------------------|
-------4----------------|---------2-------------|------6----------------|
---------------------0--|------------4-------0--|----------6------4--2--|
------------------0-----|-----------------0-----|--4-------4---------4--|
--0-------0-------------|--0------0-------------|-----------------6-----|

  E  E  E  E  E  E  E  E     E  E  E  E  E.  S E  E
-----4--0--------2--------|--------------------------|
-----------4--0-----------|--------------------------|
--------------------------|------------------1----2--|
-----------------------2--|--4-----0--2--4--------0--|
--4--------4--------4-----|-----0--------------0-----|
--------------------------|--0--------0--------------|

  E  E  E  E  E.  S E  E     Q.     Q.     E  E     Q    E  E  E  E  E  E
--------------------------|----------------------|-------4--0-----0--------|
--------------------------|----------------------|-------------2-----0-----|
--1-----------1---2----1--|--1-------------------|----------------------2--|
--------2--4-----------2--|-------------------4--|--4----------------------|
-----2--------------2-----|----------------4-----|-------------------------|
--2--------2--------------|--4------4------------|--4-------4--2--------2--|

  Q.     Q.     E  E     Q.     E  Q    E  E     Q.     Q.     E  E
--2-------------------|------------0----------|--4-------------------|
--5-------------------|--0---------0----------|--5-------------------|
--2-------------------|-----------------------|----------------------|
--0----------------0--|--4-----------------0--|-------------------4--|
--0-------------0-----|-----------------0-----|----------------4-----|
--0------0------------|--0------0-------------|--4------4------------|

  Q.     E  Q    Q       Q.     Q.     E  E     Q.     E  Q    E  E
--5---------4----0----|----------------------|-----------------0-----|
--7---------5----2----|--2-------------------|------------0----0-----|
----------------------|--2-------------------|-----------------------|
----------------------|-------------------0--|------------4-------0--|
----------------------|----------------0-----|-----------------0-----|
--4------4-------2----|--0------0------------|--0------0-------------|

  Q.     E  Q    E  E     Q.     E  Q    E  E     Q.     Q.     E  E
-----------------------|-----------------------|----------------------|
--0--------------------|-----------------------|----------------------|
--1---------2----------|-----------------------|----------------------|
------------4-------4--|--6---------4----2--4--|-------------------0--|
-----------------4-----|--7---------4----4--5--|----------------0-----|
--4------4-------------|--4------4-------2-----|--0------0------------|

  Q.     E  Q    E  E     Q.     Q.     E  E     Q.     E  Q    Q
------------0----------|--4-------------------|--5---------4----0----|
--0---------0----------|--5-------------------|--7---------5----0----|
-----------------------|----------------------|----------------------|
--4-----------------0--|-------------------4--|----------------------|
-----------------0-----|----------------4-----|----------------------|
--0------0-------------|--4------4------------|--4------4-------2----|

  Q.     Q.     E  E     Q.     E  Q    Q       Q.     Q.     E  E
----------------------|------------0---------|--2-------------------|
--2-------------------|----------------------|----------------------|
--2-------------------|------------1---------|--2-------------------|
-------------------0--|----------------------|-------------------4--|
----------------0-----|-----------------4----|----------------4-----|
--0------0------------|--0------0------------|--4------4------------|

  E  E  E  E  E  E  E  E
--------4--0--------2--0---||
---------------------------||
--------------------------*||
-----4-----------2--------*||
---------------------------||
--4-----------2------------||

Duration Legend
---------------
W - whole
H - half
Q - quarter
E - 8th
S - 16th
T - 32nd
X - 64th
. - note dotted
|-n-|  - n-tuplets
Login or Register to remove this ad.

23 comments on Corridors of Time

When you first submitted

When you first submitted this, I was unable to play it. Now I can actually handle it and man, this is such a cool arrangement. Props to you sir.

omg it's too advanced for

omg it's too advanced for me, but it's such a beautiful song!

Nice arrangement! Though I

5

Nice arrangement! Though I wonder how the beginning part is meant to be played? I'm trying to do it 3 finger tremolo style but can't seem to get a good flow to it no matter what :-(

Revolverileo- do you mean

Revolverileo- do you mean picado? because I don't see a tremolo could work. I just finger pick and it's works fine.

Yes. Finger picking, from

Yes. Finger picking, from what I can tell, is the best way to play the intro.
You can also use a traditional pick and do it, but I always stick with finger picking.

I was thinking it would be

I was thinking it would be really cool if you added some percussion into this arrangement. I find myself doing it regardless when I play it. hmm...

Uhh i think the intro is a

Uhh i think the intro is a sweep or something ._.

Beatiful song, its kinda

Beatiful song, its kinda advanced for me but with a little practice i would be able to play it.

it was my favorite song from

5

it was my favorite song from the game, too. something about that point in the game gives me this zen feeling i cant find anywhere else

Is it the lush island

Is it the lush island paradise with waterfalls just falling off effortlessly?

I bet it's the lush island paradise with waterfalls just falling off effortlessly.

Love it

I LOVE this arrangement, but that inro is kicking my ass...

Wut

5

Why the hell is this version the only one that doesn't have 5 stars when it's the only one playing each note?

Armcannon?

Is this supposed to be from Armcannon's cover? It sounds just freaking like it.

Er, this arrangement is two

Er, this arrangement is two years older than that album. Also, it's for solo acoustic guitar. I think the only thing they really have in common is that they're arrangements of the same song, as they sound completely unlike . . . ^-^;

auriplane said Er, this

auriplane said

Er, this arrangement is two years older than that album. Also, it's for solo acoustic guitar. I think the only thing they really have in common is that they're arrangements of the same song, as they sound completely unlike . . . ^-^;

I wouldn't say they sound unlike each other. They're pretty much the same song only one of them, stamen47's, is better. I wish Ashanes version would be posted. His is the best version I've heard.

Man this is totally out of my

5

Man this is totally out of my league. I'll come back after I've trained enough and then I will be doing the ass-kicking

Thanks for this Stamen!!

P/s. anyone has a vid of this being played, do link me!

playing this is like closing

5

playing this is like closing your eyes, lean back and just relax

a magnificent bassline ladies and gentleman! free entry, come and see it with your own eyes!

they cant understand how they

5

if they dont know where this song is from they are lost for words

and yes, its very, very tough. And if you play it too intensely, it even hurt a bit... but the listening to it makes you want to keep it resonate as long as you can <3

I cannot play the first part

5

I cannot play the first part fast enough, not sure how to finger it to make speedy.

I use my index and middle

I use my index and middle fingers in an alternate motion. Practice dat shit.

Is there a way to reduce that

Is there a way to reduce that scratching sound when playing the D string this way ? Because of that I'm trying the thumb upstroke/downstroke thing that nate used in his Sonic and DK arrangements :/

Try experimenting with angle.

Try experimenting with angle. Play parallel to the string, so your finger scrapes over all the windings. Then perpendicular, so it scrapes over none of them. That's the scratching sound you're talking about, yes? If so, then you can control it with angle.

(Maybe someone else can talk about controlling the angle your finger hits the string by shaping nails, but I don't know much about that, if so.)

This rocks! Definitely my

This rocks! Definitely my favorite Chrono Trigger track. (maybe my favorite video game song of all time).