Chrono Trigger Medley (Chrono Trigger) Guitar Tab

Submitted: Sep 29, 2008 by schiefer (Last updated: Sep 30, 2008)

4.333335
Average: 4.3 (6 votes)
Download | Listen
Game: Chrono Trigger
Composer(s): Nobuo Uematsu, Yasunori Mitsuda, Noriko Matsueda
Style: 2 or more instruments, Transcription
Series: Chrono

AutoScroll: Slow | Medium | Fast
Chrono Trigger Medley


Composer: Yasunori Mitsuda, Nobuo Uematsu and Noriko Matsueda

Tab and arrangement: Thiago Schiefer (if you'd like, check my original work at www.myspace.com/thiagoschiefer)

Contents: Guitars 1 and 2, rhythm and clean guitars

(Tablature and duration legend at the end of the tab)




Guitar 1



D#||-------|-------|-------|-------|-------|-------|-------|-------|-------|
A#||-------|-------|-------|-------|-------|-------|-------|-------|-------|
F#||-------|-------|-------|-------|-------|-------|-------|-------|-------|
C#||-------|-------|-------|-------|-------|-------|-------|-------|-------|
G#||-------|-------|-------|-------|-------|-------|-------|-------|-------|
D#||-------|-------|-------|-------|-------|-------|-------|-------|-------|


                  <                                                         
                  H.                Q.      Q    E      Q.       E  E   E   
-------|-------|----------------|--12------10----8--|----------------------|
-------|-------|--8~------------|-------------------|--12~------10--8------|
-------|-------|----------------|-------------------|------------------10--|
-------|-------|----------------|-------------------|----------------------|
-------|-------|----------------|-------------------|----------------------|
-------|-------|----------------|-------------------|----------------------|


  Q.       Q.         Q.      Q.          Q.      Q    E   
-------------------|------------------|--12------10----8--|
-------------------|----------8~------|-------------------|
--9~------10~------|--9~--------------|-------------------|
-------------------|------------------|-------------------|
-------------------|------------------|-------------------|
-------------------|------------------|-------------------|


   Q.       E  E   E      Q.      Q.         Q.         Q.      
----------------------|------------------|---------------------|
--12~------10--8--10--|--12------13------|--13pbr------12------|
----------------------|------------------|---------------------|
----------------------|------------------|---------------------|
----------------------|------------------|---------------------|
----------------------|------------------|---------------------|


   Q.      Q    E      Q.       E  E   E     Q.       Q.       
--12------10----8--|----------------------|-------------------|
-------------------|--12~------10--8------|-------------------|
-------------------|------------------10--|--9~------10~------|
-------------------|----------------------|-------------------|
-------------------|----------------------|-------------------|
-------------------|----------------------|-------------------|


  Q.      Q.          Q.      Q    E      Q.       E  E   E   
------------------|--12------10----8--|----------------------|
----------8~------|-------------------|--12~------10--8--10--|
--9~--------------|-------------------|----------------------|
------------------|-------------------|----------------------|
------------------|-------------------|----------------------|
------------------|-------------------|----------------------|


   Q.      Q.         Q.         Q.         E   E   E   Q      E   
------------------|---------------------|--12------15--12~--------|
--12------13------|--13pbr------12------|------15-------------13--|
------------------|---------------------|-------------------------|
------------------|---------------------|-------------------------|
------------------|---------------------|-------------------------|
------------------|---------------------|-------------------------|


   Q     Q     E   E      H.                Q.      Q.      
----------------------|-----------------|------------------|
--12----13----12------|-----------------|------------------|
------------------12--|-----------------|--12------14------|
----------------------|--14~------------|------------------|
----------------------|-----------------|------------------|
----------------------|-----------------|------------------|


   E   E   E   Q      E      Q     Q     Q        Q     Q     Q     
--12------15--12~--------|--------------------|--12----15----17----|
------15-------------13--|--12----13----15----|--------------------|
-------------------------|--------------------|--------------------|
-------------------------|--------------------|--------------------|
-------------------------|--------------------|--------------------|
-------------------------|--------------------|--------------------|


   Q.      Q.         Q     Q.                                              
--17------16------|--17\-----------|---------|---------|---------|---------|
------------------|----------------|---------|---------|---------|---------|
------------------|----------------|---------|---------|---------|---------|
------------------|----------------|---------|---------|---------|---------|
------------------|----------------|---------|---------|---------|---------|
------------------|----------------|---------|---------|---------|---------|


                                Q    Q    Q       Q    Q    Q     
---------|---------|---------|-----------------|-----------------|
---------|---------|---------|-----------------|-----------------|
---------|---------|---------|-----------------|--2----4----5----|
---------|---------|---------|--2----3----5----|-----------------|
---------|---------|---------|-----------------|-----------------|
---------|---------|---------|-----------------|-----------------|


  H.               H.               H.               H        Q     
----------------|---------------|-----------------|----------------|
----------------|---------------|--/5~------------|--3--------1----|
--4~------------|--L------------|-----------------|----------------|
----------------|---------------|-----------------|----------------|
----------------|---------------|-----------------|----------------|
----------------|---------------|-----------------|----------------|


                                                           <                  
  H.               H.                                      W                  
----------------|---------------|-------|-------|-------|--------------------|
----------------|---------------|-------|-------|-------|--8~----------------|
--4~------------|--L------------|-------|-------|-------|--------------------|
----------------|---------------|-------|-------|-------|--------------------|
----------------|---------------|-------|-------|-------|--------------------|
----------------|---------------|-------|-------|-------|--------------------|


  W                    H        H           H        H         
--------------------|--------------------|--------------------|
--------------------|--------------------|--------------------|
--------------------|--------------------|-----------9--------|
--------------------|-----------7--------|--9-----------------|
--------------------|--7-----------------|--------------------|
--5~----------------|--------------------|--------------------|


   H         H           W                    H         H         
----------------------|--8----------------|--10--------12--------|
--10--------12--------|-------------------|----------------------|
----------------------|-------------------|----------------------|
----------------------|-------------------|----------------------|
----------------------|-------------------|----------------------|
----------------------|-------------------|----------------------|


                                         |----3----|     
   E.   E.   S  S  H            H        H         Q     
--14---15---14-10------------|--------------------------|
------------------12~--------|--L-----------------12----|
-----------------------------|--------------------------|
-----------------------------|--------------------------|
-----------------------------|--------------------------|
-----------------------------|--------------------------|


   |-----3-----|     |-----3-----|                                    
   Q     Q     Q     Q     Q     Q       H         S.  T  S  S  Q     
--12----14----15----------14----------|---------------------12-17----|
--------------------12----------15----|--L~--------------13----------|
--------------------------------------|---------------14-------------|
--------------------------------------|------------------------------|
--------------------------------------|------------------------------|
--------------------------------------|------------------------------|


   E.   E.   S  S  H           H.            E   E   
--19---19---17-16-----------|-----------------------|
------------------17--------|--L~---------------12--|
----------------------------|-----------------------|
----------------------------|-----------------------|
----------------------------|-----------------------|
----------------------------|-----------------------|


   |-----3-----|     |-----3-----|                                    
   Q     Q     Q     Q     Q     Q       H         S.  T  S  S  Q     
--12----14----15----------14----------|---------------------12-17----|
--------------------12----------15----|--L~--------------13----------|
--------------------------------------|---------------14-------------|
--------------------------------------|------------------------------|
--------------------------------------|------------------------------|
--------------------------------------|------------------------------|


   E.   E.   S  S  H           H.            E   S  S     H         H         
--19---19---17-16-----------|-------------------------|--15--------17--------|
------------------17--------|--L~---------------17-19-|----------------------|
----------------------------|-------------------------|----------------------|
----------------------------|-------------------------|----------------------|
----------------------------|-------------------------|----------------------|
----------------------------|-------------------------|----------------------|


   Q.      E  E   E  E    E     E   E  E   S  S  H         
--19------20-----20-----/22--|-----22--L--21-20-19--------|
-----------------------------|----------------------------|
-----------------------------|----------------------------|
-----------------------------|----------------------------|
-----------------------------|----------------------------|
-----------------------------|----------------------------|


  H.            E   E      H         H            H         H         
--L~-------------------|--12--------15--------|--17--------15--------|
-------------------12--|----------------------|----------------------|
-----------------------|----------------------|----------------------|
-----------------------|----------------------|----------------------|
-----------------------|----------------------|----------------------|
-----------------------|----------------------|----------------------|


                                                             |-----3-----|     
   S   S   S S E  S S S S E   S   S   S S    S S S S S S E   Q     Q     Q     
--14s-12s-14-----------------14s-12s-14---|-----------------14----14----------|
------------------------------------------|-----------------------------12----|
------------------------------------------|-----------------------------------|
------------------------------------------|-----------------------------------|
------------------------------------------|-----------------------------------|
------------------------------------------|-----------------------------------|


   |-----3-----|     |-----3-----|                                    
   Q     Q     Q     Q     Q     Q       H         S.  T  S  S  Q     
--12----14----15----------14----------|---------------------12-17----|
--------------------12----------15----|--L~--------------13----------|
--------------------------------------|---------------14-------------|
--------------------------------------|------------------------------|
--------------------------------------|------------------------------|
--------------------------------------|------------------------------|


   E.   E.   S  S  H           H.            E   E   
--19---19---17-16-----------|-----------------------|
------------------17--------|--L~---------------12--|
----------------------------|-----------------------|
----------------------------|-----------------------|
----------------------------|-----------------------|
----------------------------|-----------------------|


   |-----3-----|     |-----3-----|                                    
   Q     Q     Q     Q     Q     Q       H         S.  T  S  S  Q     
--12----14----15----------14----------|---------------------12-17----|
--------------------12----------15----|--L~--------------13----------|
--------------------------------------|---------------14-------------|
--------------------------------------|------------------------------|
--------------------------------------|------------------------------|
--------------------------------------|------------------------------|


   E.   E.   S  S  H           H.            E   S  S     H         H         
--19---19---17-16-----------|-------------------------|--15--------17--------|
------------------17--------|--L~---------------17-19-|----------------------|
----------------------------|-------------------------|----------------------|
----------------------------|-------------------------|----------------------|
----------------------------|-------------------------|----------------------|
----------------------------|-------------------------|----------------------|


   Q.      E  E   E  E    E     E   E  E   S  S  H         
--19------20-----20-----/22--|-----22--L--21-20-19--------|
-----------------------------|----------------------------|
-----------------------------|----------------------------|
-----------------------------|----------------------------|
-----------------------------|----------------------------|
-----------------------------|----------------------------|


  H.            E   E      H         H            H         H         
--L~-------------------|--12--------15--------|--17--------15--------|
-------------------12--|----------------------|----------------------|
-----------------------|----------------------|----------------------|
-----------------------|----------------------|----------------------|
-----------------------|----------------------|----------------------|
-----------------------|----------------------|----------------------|


                                                      Clean

                                                      3    3    3 3    
   S   S   S S E  S S S S E   S   S   S S    H        Q    Q    S E.   
--14s-12s-14-----------------14s-12s-14---|-----------------------5---|
------------------------------------------|---------------------5-----|
------------------------------------------|----------------7----------|
------------------------------------------|-----------7---------------|
------------------------------------------|---------------------------|
------------------------------------------|---------------------------|


                                               |----3----|              
  H.           E  S S    H        Q.     E     Q    Q    Q    H         
--7------------L--5-3-|---------------------|------------5----5--------|
----------------------|--7--------3------3--|--2----3------------------|
----------------------|---------------------|--------------------------|
----------------------|---------------------|--------------------------|
----------------------|---------------------|--------------------------|
----------------------|---------------------|--------------------------|


  W                    H.           E  E     H         H         
--L~----------------|--7------------5--7--|--9--------10--------|
--------------------|---------------------|---------------------|
--------------------|---------------------|---------------------|
--------------------|---------------------|---------------------|
--------------------|---------------------|---------------------|
--------------------|---------------------|---------------------|


  W                   H         Q    T T E.     H.           E  S S  
--7----------------|--L~-----------------5---|--7------------L--5-3-|
-------------------|-------------------5-----|----------------------|
-------------------|-----------------7-------|----------------------|
-------------------|-------------------------|----------------------|
-------------------|-------------------------|----------------------|
-------------------|-------------------------|----------------------|


                        |----3----|                 |----3----|               
  H        Q.     E     Q    Q    Q    Q.     E     Q    Q    Q    H          
---------------------|------------5----5---------|------------5----L~--------|
--7--------3------3--|--2----3----------------3--|--2----3-------------------|
---------------------|---------------------------|---------------------------|
---------------------|---------------------------|---------------------------|
---------------------|---------------------------|---------------------------|
---------------------|---------------------------|---------------------------|


                                               Distortion

  H.           E  E     H         H            H.            E   S  S  
--7------------5--7--|--9--------10--------|--------------------------|
---------------------|---------------------|--17~------------L--15-17-|
---------------------|---------------------|--------------------------|
---------------------|---------------------|--------------------------|
---------------------|---------------------|--------------------------|
---------------------|---------------------|--------------------------|


   E.   E.   E   Q     E   S  S     E.   E.   E   E.   E.   E   
--------------------------------|------------------------------|
--12----------------------------|------------------------------|
-------14---16------------------|--12---14---12----------------|
----------------14~----L--14-16-|----------------16---12-------|
--------------------------------|--------------------------14--|
--------------------------------|------------------------------|


  W                    E  S S S E  S E  E  E  E     E.  E.   E  E  E  E  S  S  
--------------------|-------------------------5--|--7-------10--L--8--L--7h-8-|
--------------------|--------------5-L--7--8-----|------5---------------------|
--------------------|-----2-4-5-7----------------|----------------------------|
--------------------|----------------------------|----------------------------|
--L~----------------|----------------------------|----------------------------|
--------------------|----------------------------|----------------------------|


  E.   E.  E   H            H         Q    Q       E.  E.  E  E.  E.  E   
--7---------------------|-----------------------|------------------------|
------10---8--10--------|---L~--------8----7----|--7---8---7-------------|
------------------------|-----------------------|-------------7-------9--|
------------------------|-----------------------|-----------------9------|
------------------------|-----------------------|------------------------|
------------------------|-----------------------|------------------------|


  E  E  H.                                 
---------------------|---------------|----|
---------------------|---------------|----|
--L------------------|---------------|----|
---------------------|---------------|----|
---------------------|---------------|----|
---------------------|---------------|----|


   |---3---|   |---3---|   |---3---|   |---3---|                         
   E   E   E   E   E   E   E   E   E   E   E   E      W                  
--14------------------13--12------------------11--|--10~----------------|
--------------------------------------------------|---------------------|
------13--12--11--12----------12--11--10--11------|---------------------|
--------------------------------------------------|---------------------|
--------------------------------------------------|---------------------|




--------------------------------------------------|---------------------|


                           |--3-|              |--3--|           |--3--|   
  W                   Q    Q    E  H           E  E  E  H        E  E  E   
--L----------------|------------------------|-----------------------------|
-------------------|------------------------|-----------------------------|
-------------------|---------------7--------|-----------7--------7--7--8--|
-------------------|-------5----5-----------|--5--5--5--------------------|
-------------------|------------------------|-----------------------------|
-------------------|------------------------|-----------------------------|


            |----3----|       |---3--|                 
  Q    Q    Q    Q    Q       E  E   E   H.            
---------------------------|--------------------------|
--6------------------------|--------------------------|
-------5----8----7----5----|--------------------------|
---------------------------|--8--8--10--12------------|
---------------------------|--------------------------|
---------------------------|--------------------------|


       |--3-|  |----3---|       |--3--|           |--3--|   
  Q    Q    E  H        Q       E  E  E  H        E  E  E   
-----------------------------|-----------------------------|
-----------------------------|-----------------------------|
---------------7--------L----|-----------7--------7--7--8--|
--L----5----5----------------|--5--5--5--------------------|
-----------------------------|-----------------------------|
-----------------------------|-----------------------------|


            |----3----|       |---3--|                  
  Q    Q    Q    Q    Q       E  E   E   H.             
---------------------------|---------------------------|
--6------------------------|---------------------------|
-------5----8----7----5----|---------------------------|
---------------------------|--9--9--10--12~------------|
---------------------------|---------------------------|
---------------------------|---------------------------|


       |--3-|               |--3--|             |---3---|   
  Q    Q    E   H           E  E  E   H         E   E   E   
-------------------------|---------------------------------|
-------------------------|---------------------------------|
---------------10--------|-----------10--------10--10--11--|
--L----8----8------------|--8--8--8------------------------|
-------------------------|---------------------------------|
-------------------------|---------------------------------|


             |-----3----|        |---3---|                 
  Q    Q     Q     Q    Q        E   E   E   H.            
-----------------------------|----------------------------|
--9--------------------------|----------------------------|
-------8----11----10----8----|----------------------------|
-----------------------------|--11--11--13--15------------|
-----------------------------|----------------------------|
-----------------------------|----------------------------|


       |--3-|               |--3--|             |---3---|   
  Q    Q    E   H           E  E  E   H         E   E   E   
-------------------------|---------------------------------|
-------------------------|---------------------------------|
---------------10--------|-----------10--------10--10--11--|
--L----8----8------------|--8--8--8------------------------|
-------------------------|---------------------------------|
-------------------------|---------------------------------|


             |-----3----|        |---3---|                  
  Q    Q     Q     Q    Q        E   E   E   H.             
-----------------------------|-----------------------------|
--9--------------------------|-----------------------------|
-------8----11----10----8----|-----------------------------|
-----------------------------|--12--12--13--15~------------|
-----------------------------|-----------------------------|
-----------------------------|-----------------------------|


   |--3--|   |--3--|        |--3--|                 |---3---|  |--3--|   
   E  E  E   E  E  E  Q     E  E  E     Q     Q     E   E   E  E  E  E   
--10--------10--------9----10--------|--9----12----10--12--10--9--------|
------8--7------8--7-----------8--7--|----------------------------8--7--|
-------------------------------------|----------------------------------|
-------------------------------------|----------------------------------|
-------------------------------------|----------------------------------|
-------------------------------------|----------------------------------|


  |--3--|  |--3--|       |--3--|                |---3--|  |--3--|   
  E  E  E  E  E  E  Q    E  E  E     Q     Q    E   E  E  E  E  E   
--9--------9--------8----9--------|--8----11----9--11--9--8--------|
-----7--6-----7--6----------7--6--|--------------------------9-----|
----------------------------------|-----------------------------6--|
----------------------------------|--------------------------------|
----------------------------------|--------------------------------|
----------------------------------|--------------------------------|


  |--3--|  |--3--|  |--3--|  |--3--|     |--3--|       |--3--|        
  E  E  E  E  E  E  E  E  E  E  E  E     E  E  E  Q    E  E  E  Q     
--------------------------------------|-----------5----6--5--6--8----|
--------------------4-----4--6--4--6--|--8--6--8---------------------|
--5--3--5--7--5--7-----7--------------|------------------------------|
--------------------------------------|------------------------------|
--------------------------------------|------------------------------|
--------------------------------------|------------------------------|


                                        |---3---|         
   Q     Q    Q     Q        Q    Q     E   E   E   Q     
--10----10---------10----|--10---------10--10--10--10----|
--10----10---------10----|--10---------10--10--10--10----|
-------------------------|-------------------------------|
-------------------------|-------------------------------|
-------------------------|-------------------------------|
-------------------------|-------------------------------|


       |--3-|              |--3--|           |--3--|   
  Q    Q    E  H           E  E  E  H        E  E  E   
------------------------|-----------------------------|
------------------------|-----------------------------|
---------------7--------|-----------7--------7--7--8--|
-------5----5-----------|--5--5--5--------------------|
------------------------|-----------------------------|
------------------------|-----------------------------|


            |----3----|       |---3--|                 
  Q    Q    Q    Q    Q       E  E   E   H.            
---------------------------|--------------------------|
--6------------------------|--------------------------|
-------5----8----7----5----|--------------------------|
---------------------------|--8--8--10--12------------|
---------------------------|--------------------------|
---------------------------|--------------------------|


       |--3-|  |----3---|       |--3--|           |--3--|   
  Q    Q    E  H        Q       E  E  E  H        E  E  E   
-----------------------------|-----------------------------|
-----------------------------|-----------------------------|
---------------7--------L----|-----------7--------7--7--8--|
--L----5----5----------------|--5--5--5--------------------|
-----------------------------|-----------------------------|
-----------------------------|-----------------------------|


            |----3----|       |---3--|                  
  Q    Q    Q    Q    Q       E  E   E   H.             
---------------------------|---------------------------|
--6------------------------|---------------------------|
-------5----8----7----5----|---------------------------|
---------------------------|--9--9--10--12~------------|
---------------------------|---------------------------|
---------------------------|---------------------------|


       |--3-|               |--3--|             |---3---|   
  Q    Q    E   H           E  E  E   H         E   E   E   
-------------------------|---------------------------------|
-------------------------|---------------------------------|
---------------10--------|-----------10--------10--10--11--|
--L----8----8------------|--8--8--8------------------------|
-------------------------|---------------------------------|
-------------------------|---------------------------------|


             |-----3----|        |---3---|                 
  Q    Q     Q     Q    Q        E   E   E   H.            
-----------------------------|----------------------------|
--9--------------------------|----------------------------|
-------8----11----10----8----|----------------------------|
-----------------------------|--11--11--13--15------------|
-----------------------------|----------------------------|
-----------------------------|----------------------------|


       |--3-|               |--3--|             |---3---|   
  Q    Q    E   H           E  E  E   H         E   E   E   
-------------------------|---------------------------------|
-------------------------|---------------------------------|
---------------10--------|-----------10--------10--10--11--|
--L----8----8------------|--8--8--8------------------------|
-------------------------|---------------------------------|
-------------------------|---------------------------------|


             |-----3----|        |---3---|                  
  Q    Q     Q     Q    Q        E   E   E   H.             
-----------------------------|-----------------------------|
--9--------------------------|-----------------------------|
-------8----11----10----8----|-----------------------------|
-----------------------------|--12--12--13--15~------------|
-----------------------------|-----------------------------|
-----------------------------|-----------------------------|


   |--3--|   |--3--|        |--3--|                 |---3---|  |--3--|   
   E  E  E   E  E  E  Q     E  E  E     Q     Q     E   E   E  E  E  E   
--10--------10--------9----10--------|--9----12----10--12--10--9--------|
------8--7------8--7-----------8--7--|----------------------------8--7--|
-------------------------------------|----------------------------------|
-------------------------------------|----------------------------------|
-------------------------------------|----------------------------------|
-------------------------------------|----------------------------------|


  |--3--|  |--3--|       |--3--|                |---3--|  |--3--|   
  E  E  E  E  E  E  Q    E  E  E     Q     Q    E   E  E  E  E  E   
--9--------9--------8----9--------|--8----11----9--11--9--8--------|
-----7--6-----7--6----------7--6--|--------------------------9-----|
----------------------------------|-----------------------------6--|
----------------------------------|--------------------------------|
----------------------------------|--------------------------------|
----------------------------------|--------------------------------|


  |--3--|  |--3--|  |--3--|  |--3--|     |--3--|       |--3--|        
  E  E  E  E  E  E  E  E  E  E  E  E     E  E  E  Q    E  E  E  Q     
--------------------------------------|-----------5----6--5--6--8----|
--------------------4-----4--6--4--6--|--8--6--8---------------------|
--5--3--5--7--5--7-----7--------------|------------------------------|
--------------------------------------|------------------------------|
--------------------------------------|------------------------------|
--------------------------------------|------------------------------|


                                        |---3---|         
   Q     Q    Q     Q        Q    Q     E   E   E   Q     
--10----10---------10----|--10---------10--10--10--10----|
--10----10---------10----|--10---------10--10--10--10----|
-------------------------|-------------------------------|
-------------------------|-------------------------------|
-------------------------|-------------------------------|
-------------------------|-------------------------------|


                                        |---3---|         
   Q     Q    Q     Q        Q    Q     E   E   E   Q     
--11----11---------11----|--11---------11--11--11--11----|
--11----11---------11----|--11---------11--11--11--11----|
-------------------------|-------------------------------|
-------------------------|-------------------------------|
-------------------------|-------------------------------|
-------------------------|-------------------------------|


   |---3---|   |---3---|   |---3---|   |---3---|   
   E   E   E   E   E   E   E   E   E   E   E   E   
--12--12--12--12--12--12--13--13--13--13--13--13--|
--12--12--12--12--12--12--13--13--13--13--13--13--|
--------------------------------------------------|
--------------------------------------------------|
--------------------------------------------------|
--------------------------------------------------|


   |---3---|   |---3---|   |---3---|   |---3---|                           
   E   E   E   E   E   E   E   E   E   E   E   E      Q    Q     H         
--14--14--14--14--14--14--15--15--15--16--16--16--|--17----L\-------------|
--14--14--14--14--14--14--15--15--15--16--16--16--|--17----L\-------------|
--------------------------------------------------|-----------------------|
--------------------------------------------------|-----------------------|
--------------------------------------------------|-----------------------|
--------------------------------------------------|-----------------------|


  W                   W                                      
-------------------|-------------------|-------------------||
-------------------|-------------------|-------------------||
-------------------|-------------------|-------------------||
-------------------|-------------------|-------------------||
-------------------|-------------------|-------------------||
-------------------|-------------------|-------------------||



____________________________________________________________________________

Guitar 2



D#||-------|-------|-------|-------|-------|-------|-------|-------|-------|
A#||-------|-------|-------|-------|-------|-------|-------|-------|-------|
F#||-------|-------|-------|-------|-------|-------|-------|-------|-------|
C#||-------|-------|-------|-------|-------|-------|-------|-------|-------|
G#||-------|-------|-------|-------|-------|-------|-------|-------|-------|
D#||-------|-------|-------|-------|-------|-------|-------|-------|-------|


                  <                                                         
                  H.                Q.      Q    E      Q.       E  E   E   
-------|-------|----------------|--12------10----8--|----------------------|
-------|-------|--5~------------|-------------------|--12~------10--8------|
-------|-------|----------------|-------------------|------------------10--|
-------|-------|----------------|-------------------|----------------------|
-------|-------|----------------|-------------------|----------------------|
-------|-------|----------------|-------------------|----------------------|


  Q.       Q.         Q.      Q.          Q.      Q    E   
-------------------|------------------|--12------10----8--|
-------------------|----------8~------|-------------------|
--9~------10~------|--9~--------------|-------------------|
-------------------|------------------|-------------------|
-------------------|------------------|-------------------|
-------------------|------------------|-------------------|


   Q.       E  E   E      Q.      Q.         Q.         Q.      
----------------------|------------------|---------------------|
--12~------10--8--10--|--12------13------|--13pbr------12------|
----------------------|------------------|---------------------|
----------------------|------------------|---------------------|
----------------------|------------------|---------------------|
----------------------|------------------|---------------------|


   Q.      Q    E      Q.       E  E   E     Q.       Q.       
--12------10----8--|----------------------|-------------------|
-------------------|--12~------10--8------|-------------------|
-------------------|------------------10--|--9~------10~------|
-------------------|----------------------|-------------------|
-------------------|----------------------|-------------------|
-------------------|----------------------|-------------------|


  Q.      Q.          Q.      Q    E      Q.       E  E   E   
------------------|--12------10----8--|----------------------|
----------8~------|-------------------|--12~------10--8--10--|
--9~--------------|-------------------|----------------------|
------------------|-------------------|----------------------|
------------------|-------------------|----------------------|
------------------|-------------------|----------------------|


   Q.      Q.         Q.         Q.                                    
------------------|---------------------|---------|---------|---------|
--12------13------|--13pbr------12------|---------|---------|---------|
------------------|---------------------|---------|---------|---------|
------------------|---------------------|---------|---------|---------|
------------------|---------------------|---------|---------|---------|
------------------|---------------------|---------|---------|---------|


                                                    E  E  E  E  E   
---------|---------|---------|---------|---------|-----------------|
---------|---------|---------|---------|---------|-----------------|
---------|---------|---------|---------|---------|-----------------|
---------|---------|---------|---------|---------|--5--5-----------|
---------|---------|---------|---------|---------|--3--3-----------|
---------|---------|---------|---------|---------|-----------------|


  E  E  E  E  E  S  E.     E  E  E  E  E     E  E  E  E  E  S  E.   
------------------------|-----------------|------------------------|
------------------------|-----------------|------------------------|
------------------------|-----------------|------------------------|
--5--5--5--------5s-7---|--5--5-----------|--5--5--5--------8s-7---|
--3--3--3--------3s-5---|--3--3-----------|--3--3--3--------6s-5---|
------------------------|-----------------|------------------------|


  E  E  E  E  E     E  E  E  E  E  S  E.     E  E  E  E  E   
-----------------|------------------------|-----------------|
-----------------|------------------------|-----------------|
-----------------|------------------------|-----------------|
--5--5-----------|--5--5--5--------5s-7---|--5--5-----------|
--3--3-----------|--3--3--3--------3s-5---|--3--3-----------|
-----------------|------------------------|-----------------|


  E  E  E  E  E  S  E.                                                   
------------------------|-------|-------|-------|-------|-------|-------|
------------------------|-------|-------|-------|-------|-------|-------|
------------------------|-------|-------|-------|-------|-------|-------|
--5--5--5--------8s-7---|-------|-------|-------|-------|-------|-------|
--3--3--3--------6s-5---|-------|-------|-------|-------|-------|-------|
------------------------|-------|-------|-------|-------|-------|-------|


                   H.                H         Q        T   T   S  Q    Q.      
-------|-------|--15~------------|--13--------12----|--10h-12p-10~-L----L------|
-------|-------|-----------------|------------------|--------------------------|
-------|-------|-----------------|------------------|--------------------------|
-------|-------|-----------------|------------------|--------------------------|
-------|-------|-----------------|------------------|--------------------------|
-------|-------|-----------------|------------------|--------------------------|


  <                                                                  
  W                                                                  
--------------------|---------------|---------------|---------------|
--5~----------------|---------------|---------------|---------------|
--------------------|---------------|---------------|---------------|
--------------------|---------------|---------------|---------------|
--------------------|---------------|---------------|---------------|
--------------------|---------------|---------------|---------------|


---------------|---------------|---------------|---------------|
---------------|---------------|---------------|---------------|
---------------|---------------|---------------|---------------|
---------------|---------------|---------------|---------------|
---------------|---------------|---------------|---------------|
---------------|---------------|---------------|---------------|


   |---3---|  |---3---|   |---3---|  |---3---|   |---3---|  |---3---|   |---3---
   S   S   S  S   S   S   S   S   S  S   S   S   S   S   S  S   S   S   S   S   
--------------------------------------------------------------------------------
-----------------------------------------------------------15h-17h-19p-15h-17h-1
------------------------------------14h-16h-17p-14h-16h-17----------------------
-------------14h-16h-17p-14h-16h-17---------------------------------------------
--14h-15h-17--------------------------------------------------------------------
--------------------------------------------------------------------------------


---------------|---------------|---------------|---------------|---------------|
---------------|---------------|---------------|---------------|---------------|
---------------|---------------|---------------|---------------|---------------|
---------------|---------------|---------------|---------------|---------------|
---------------|---------------|---------------|---------------|---------------|
---------------|---------------|---------------|---------------|---------------|


---------------|---------------|---------------|---------------|---------------|
---------------|---------------|---------------|---------------|---------------|
---------------|---------------|---------------|---------------|---------------|
---------------|---------------|---------------|---------------|---------------|
---------------|---------------|---------------|---------------|---------------|
---------------|---------------|---------------|---------------|---------------|


---------------|---------------|---------------|---------------|---------------|
---------------|---------------|---------------|---------------|---------------|
---------------|---------------|---------------|---------------|---------------|
---------------|---------------|---------------|---------------|---------------|
---------------|---------------|---------------|---------------|---------------|
---------------|---------------|---------------|---------------|---------------|


   |---3---|  |---3---|   |---3---|  |---3---|   |---3---|  |---3---|   |---3---
   S   S   S  S   S   S   S   S   S  S   S   S   S   S   S  S   S   S   S   S   
--------------------------------------------------------------------------------
-----------------------------------------------------------15h-17h-19p-15h-17h-1
------------------------------------14h-16h-17p-14h-16h-17----------------------
-------------14h-16h-17p-14h-16h-17---------------------------------------------
--14h-15h-17--------------------------------------------------------------------
--------------------------------------------------------------------------------


---------------|---------------|---------------|---------------|---------------|
---------------|---------------|---------------|---------------|---------------|
---------------|---------------|---------------|---------------|---------------|
---------------|---------------|---------------|---------------|---------------|
---------------|---------------|---------------|---------------|---------------|
---------------|---------------|---------------|---------------|---------------|


---------------|---------------|---------------|---------------|---------------|
---------------|---------------|---------------|---------------|---------------|
---------------|---------------|---------------|---------------|---------------|
---------------|---------------|---------------|---------------|---------------|
---------------|---------------|---------------|---------------|---------------|
---------------|---------------|---------------|---------------|---------------|


---------------|---------------|---------------|---------------|---------------|
---------------|---------------|---------------|---------------|---------------|
---------------|---------------|---------------|---------------|---------------|
---------------|---------------|---------------|---------------|---------------|
---------------|---------------|---------------|---------------|---------------|
---------------|---------------|---------------|---------------|---------------|


---------------|---------------|---------------|---------------|---------------|
---------------|---------------|---------------|---------------|---------------|
---------------|---------------|---------------|---------------|---------------|
---------------|---------------|---------------|---------------|---------------|
---------------|---------------|---------------|---------------|---------------|
---------------|---------------|---------------|---------------|---------------|


---------------|---------------|---------------|---------------|---------------|
---------------|---------------|---------------|---------------|---------------|
---------------|---------------|---------------|---------------|---------------|
---------------|---------------|---------------|---------------|---------------|
---------------|---------------|---------------|---------------|---------------|
---------------|---------------|---------------|---------------|---------------|


---------------|---------------|---------------|---------------|---------------|
---------------|---------------|---------------|---------------|---------------|
---------------|---------------|---------------|---------------|---------------|
---------------|---------------|---------------|---------------|---------------|
---------------|---------------|---------------|---------------|---------------|
---------------|---------------|---------------|---------------|---------------|


   H.            E   S  S     E.   E.   E   Q     E   S  S  
--15~------------L--14-15-|--------------------------------|
--------------------------|--15----------------------------|
--------------------------|-------17---19------------------|
--------------------------|----------------17~----L--17-19-|
--------------------------|--------------------------------|
--------------------------|--------------------------------|


   E.   E.   E   E.   E.   E     W                  
------------------------------|--------------------|
------------------------------|--------------------|
--16---17---16--14------------|--------------------|
---------------------16---12--|--L~----------------|
------------------------------|--------------------|
------------------------------|--------------------|


  E  S S S  E  S E   E   E  E      E.  E.   E  E   E  E   S   S  
----------------------------8--|--10-------14--L--12--L--10h-12-|
---------------8-L--10--12-----|-------8------------------------|
-----5-7-9-11------------------|--------------------------------|
-------------------------------|--------------------------------|
-------------------------------|--------------------------------|
-------------------------------|--------------------------------|


   E.   E.   E   H            H          Q     Q     
--10----------------------|-------------------------|
-------13---12--10--------|---L~--------12----10----|
--------------------------|-------------------------|
--------------------------|-------------------------|
--------------------------|-------------------------|
--------------------------|-------------------------|


   E.   E.   E   E.   E.  E     E  E  H.                            
-----------------------------|---------------------|---------------|
--10---12---10---------------|---------------------|---------------|
----------------11--------9--|--L------------------|---------------|
---------------------12------|---------------------|---------------|
-----------------------------|---------------------|---------------|
-----------------------------|---------------------|---------------|


                                               |--3-|            
                                          Q    Q    E  H         
---------------|-------|-------|-------|------------------------|
---------------|-------|-------|-------|------------------------|
---------------|-------|-------|-------|---------------7--------|
---------------|-------|-------|-------|-------5----5-----------|
---------------|-------|-------|-------|------------------------|
---------------|-------|-------|-------|------------------------|


  |--3--|           |--3--|               |----3----|     
  E  E  E  H        E  E  E     Q    Q    Q    Q    Q     
-----------------------------|---------------------------|
-----------------------------|--6------------------------|
-----------7--------7--7--8--|-------5----8----7----5----|
--5--5--5--------------------|---------------------------|
-----------------------------|---------------------------|
-----------------------------|---------------------------|


  |---3--|                        |--3-|  |----3---|     
  E  E   E   H.              Q    Q    E  H        Q     
--------------------------|-----------------------------|
--------------------------|-----------------------------|
--------------------------|---------------7--------L----|
--8--8--10--12------------|--L----5----5----------------|
--------------------------|-----------------------------|
--------------------------|-----------------------------|


  |--3--|           |--3--|               |----3----|     
  E  E  E  H        E  E  E     Q    Q    Q    Q    Q     
-----------------------------|---------------------------|
-----------------------------|--6------------------------|
-----------7--------7--7--8--|-------5----8----7----5----|
--5--5--5--------------------|---------------------------|
-----------------------------|---------------------------|
-----------------------------|---------------------------|


  |---3--|                         |--3-|             
  E  E   E   H.               Q    Q    E   H         
---------------------------|-------------------------|
---------------------------|-------------------------|
---------------------------|---------------10--------|
--9--9--10--12~------------|--L----8----8------------|
---------------------------|-------------------------|
---------------------------|-------------------------|


  |--3--|             |---3---|                |-----3----|     
  E  E  E   H         E   E   E     Q    Q     Q     Q    Q     
---------------------------------|-----------------------------|
---------------------------------|--9--------------------------|
-----------10--------10--10--11--|-------8----11----10----8----|
--8--8--8------------------------|-----------------------------|
---------------------------------|-----------------------------|
---------------------------------|-----------------------------|


   |---3---|                        |--3-|             
   E   E   E   H.              Q    Q    E   H         
----------------------------|-------------------------|
----------------------------|-------------------------|
----------------------------|---------------10--------|
--11--11--13--15------------|--L----8----8------------|
----------------------------|-------------------------|
----------------------------|-------------------------|


  |--3--|             |---3---|                |-----3----|     
  E  E  E   H         E   E   E     Q    Q     Q     Q    Q     
---------------------------------|-----------------------------|
---------------------------------|--9--------------------------|
-----------10--------10--10--11--|-------8----11----10----8----|
--8--8--8------------------------|-----------------------------|
---------------------------------|-----------------------------|
---------------------------------|-----------------------------|


   |---3---|                                                                  
   E   E   E   H.                                                             
-----------------------------|-------|-------|-------|-------|-------|-------|
-----------------------------|-------|-------|-------|-------|-------|-------|
-----------------------------|-------|-------|-------|-------|-------|-------|
--12--12--13--15~------------|-------|-------|-------|-------|-------|-------|
-----------------------------|-------|-------|-------|-------|-------|-------|
-----------------------------|-------|-------|-------|-------|-------|-------|


                       |--3-|              |--3--|           |--3--|   
                  Q    Q    E  H           E  E  E  H        E  E  E   
-------|-------|------------------------|-----------------------------|
-------|-------|------------------------|-----------------------------|
-------|-------|---------------7--------|-----------7--------7--7--8--|
-------|-------|-------5----5-----------|--5--5--5--------------------|
-------|-------|------------------------|-----------------------------|
-------|-------|------------------------|-----------------------------|


            |----3----|       |---3--|                 
  Q    Q    Q    Q    Q       E  E   E   H.            
---------------------------|--------------------------|
--6------------------------|--------------------------|
-------5----8----7----5----|--------------------------|
---------------------------|--8--8--10--12------------|
---------------------------|--------------------------|
---------------------------|--------------------------|


       |--3-|  |----3---|       |--3--|           |--3--|   
  Q    Q    E  H        Q       E  E  E  H        E  E  E   
-----------------------------|-----------------------------|
-----------------------------|-----------------------------|
---------------7--------L----|-----------7--------7--7--8--|
--L----5----5----------------|--5--5--5--------------------|
-----------------------------|-----------------------------|
-----------------------------|-----------------------------|


            |----3----|       |---3--|                  
  Q    Q    Q    Q    Q       E  E   E   H.             
---------------------------|---------------------------|
--6------------------------|---------------------------|
-------5----8----7----5----|---------------------------|
---------------------------|--9--9--10--12~------------|
---------------------------|---------------------------|
---------------------------|---------------------------|


       |--3-|               |--3--|             |---3---|   
  Q    Q    E   H           E  E  E   H         E   E   E   
-------------------------|---------------------------------|
-------------------------|---------------------------------|
---------------10--------|-----------10--------10--10--11--|
--L----8----8------------|--8--8--8------------------------|
-------------------------|---------------------------------|
-------------------------|---------------------------------|


             |-----3----|        |---3---|                 
  Q    Q     Q     Q    Q        E   E   E   H.            
-----------------------------|----------------------------|
--9--------------------------|----------------------------|
-------8----11----10----8----|----------------------------|
-----------------------------|--11--11--13--15------------|
-----------------------------|----------------------------|
-----------------------------|----------------------------|


       |--3-|               |--3--|             |---3---|   
  Q    Q    E   H           E  E  E   H         E   E   E   
-------------------------|---------------------------------|
-------------------------|---------------------------------|
---------------10--------|-----------10--------10--10--11--|
--L----8----8------------|--8--8--8------------------------|
-------------------------|---------------------------------|
-------------------------|---------------------------------|


             |-----3----|        |---3---|                                  
  Q    Q     Q     Q    Q        E   E   E   H.                             
-----------------------------|-----------------------------|-------|-------|
--9--------------------------|-----------------------------|-------|-------|
-------8----11----10----8----|-----------------------------|-------|-------|
-----------------------------|--12--12--13--15~------------|-------|-------|
-----------------------------|-----------------------------|-------|-------|
-----------------------------|-----------------------------|-------|-------|


-------|-------|-------|-------|-------|-------|-------|-------|-------|-------|
-------|-------|-------|-------|-------|-------|-------|-------|-------|-------|
-------|-------|-------|-------|-------|-------|-------|-------|-------|-------|
-------|-------|-------|-------|-------|-------|-------|-------|-------|-------|
-------|-------|-------|-------|-------|-------|-------|-------|-------|-------|
-------|-------|-------|-------|-------|-------|-------|-------|-------|-------|


-------|-------|-------|-------||
-------|-------|-------|-------||
-------|-------|-------|-------||
-------|-------|-------|-------||
-------|-------|-------|-------||
-------|-------|-------|-------||



_________________________________________________________________________________

Rhythm guitar



D#||-------|-------|---------------|---------------|---------------|
A#||-------|-------|---------------|---------------|---------------|
F#||-------|-------|---------------|---------------|---------------|
C#||-------|-------|---------------|---------------|---------------|
G#||-------|-------|---------------|---------------|---------------|
D#||-------|-------|---------------|---------------|---------------|
A#||-------|-------|---------------|---------------|---------------|


---------------|---------------|---------------|---------------|---------------|
---------------|---------------|---------------|---------------|---------------|
---------------|---------------|---------------|---------------|---------------|
---------------|---------------|---------------|---------------|---------------|
---------------|---------------|---------------|---------------|---------------|
---------------|---------------|---------------|---------------|---------------|
---------------|---------------|---------------|---------------|---------------|


                  <                                                       
                  H.              E.  S E  E  E  E     E.  S E  E  E  E   
---------------|---------------|--------------------|--------------------|
---------------|---------------|--------------------|--------------------|
---------------|---------------|--------------------|--------------------|
---------------|--2------------|--------------------|--------------------|
---------------|--2------------|--2---2-2--5--5--5--|--2---2-2--5--5--5--|
---------------|--0------------|--0---0-0--1--1--1--|--0---0-0--3--3--3--|
---------------|---------------|--------------------|--------------------|


  E.  S E  E  E  E     E.  S E  E  E  E     E.  S E  E  E  E   
--------------------|--------------------|--------------------|
--------------------|--------------------|--------------------|
--------------------|--------------------|--------------------|
--------------------|--------------------|--------------------|
--2---2-2--5--5--5--|--2---2-2--5--5--5--|--2---2-2--5--5--5--|
--0---0-0--1--1--1--|--0---0-0--3--3--3--|--0---0-0--1--1--1--|
--------------------|--------------------|--------------------|


  E.  S E  E  E  E     E.  S E  E  E  E     E.  S E  E  E  E   
--------------------|--------------------|--------------------|
--------------------|--------------------|--------------------|
--------------------|--------------------|--------------------|
--------------------|--------------------|--------------------|
--2---2-2--5--5--5--|--2---2-2--5--5--5--|--2---2-2--5--5--5--|
--0---0-0--3--3--3--|--0---0-0--1--1--1--|--0---0-0--3--3--3--|
--------------------|--------------------|--------------------|


  E.  S E  E  E  E     E.  S E  E  E  E     E.  S E  E  E  E   
--------------------|--------------------|--------------------|
--------------------|--------------------|--------------------|
--------------------|--------------------|--------------------|
--------------------|--------------------|--------------------|
--2---2-2--5--5--5--|--2---2-2--5--5--5--|--2---2-2--5--5--5--|
--0---0-0--1--1--1--|--0---0-0--3--3--3--|--0---0-0--1--1--1--|
--------------------|--------------------|--------------------|


  E.  S E  E  E  E     E.  S E  E  E  E     E.  S E  E  E  E   
--------------------|--------------------|--------------------|
--------------------|--------------------|--------------------|
--------------------|--------------------|--------------------|
--------------------|--------------------|--------------------|
--2---2-2--5--5--5--|--2---2-2--5--5--5--|--2---2-2--5--5--5--|
--0---0-0--3--3--3--|--0---0-0--1--1--1--|--0---0-0--3--3--3--|
--------------------|--------------------|--------------------|


  E.  S E  E  E  E     E.  S E  E  E  E     H.              H.            
--------------------|--------------------|---------------|---------------|
--------------------|--------------------|---------------|---------------|
--------------------|--------------------|--2------------|---------------|
--------------------|--------------------|--2------------|--5------------|
--2---2-2--5--5--5--|--2---2-2--5--5--5--|--0------------|--5------------|
--0---0-0--1--1--1--|--0---0-0--3--3--3--|---------------|--3------------|
--------------------|--------------------|---------------|---------------|


  H.              H.              H.              H.            
---------------|---------------|---------------|---------------|
---------------|---------------|---------------|---------------|
---------------|---------------|--2------------|--4------------|
--2------------|--5------------|--2------------|--5------------|
--2------------|--5------------|--0------------|--2------------|
--0------------|--3------------|---------------|---------------|
---------------|---------------|---------------|---------------|


  Q.     Q.        H.              E  E  E  E  E     E  E  E  E  E  S  E.   
----------------|---------------|-----------------|------------------------|
----------------|---------------|-----------------|------------------------|
--5------7------|--9------------|-----------------|------------------------|
--5------7------|--9------------|--5--5-----------|--5--5--5--------5s-7---|
--3------5------|--7------------|--3--3-----------|--3--3--3--------3s-5---|
----------------|---------------|-----------------|------------------------|
----------------|---------------|-----------------|------------------------|


  E  E  E  E  E     E  E  E  E  E  S  E.     E  E  E  E  E   
-----------------|------------------------|-----------------|
-----------------|------------------------|-----------------|
-----------------|------------------------|-----------------|
--5--5-----------|--5--5--5--------8s-7---|--5--5-----------|
--3--3-----------|--3--3--3--------6s-5---|--3--3-----------|
-----------------|------------------------|-----------------|
-----------------|------------------------|-----------------|


  E  E  E  E  E  S  E.     E  E  E  E  E     E  E  E  E  E  S  E.          
------------------------|-----------------|------------------------|------|
------------------------|-----------------|------------------------|------|
------------------------|-----------------|------------------------|------|
--5--5--5--------5s-7---|--5--5-----------|--5--5--5--------8s-7---|------|
--3--3--3--------3s-5---|--3--3-----------|--3--3--3--------6s-5---|------|
------------------------|-----------------|------------------------|------|
------------------------|-----------------|------------------------|------|


------|------|------|---------------|---------------|---------------|
------|------|------|---------------|---------------|---------------|
------|------|------|---------------|---------------|---------------|
------|------|------|---------------|---------------|---------------|
------|------|------|---------------|---------------|---------------|
------|------|------|---------------|---------------|---------------|
------|------|------|---------------|---------------|---------------|


---------------|---------------|---------------|---------------|
---------------|---------------|---------------|---------------|
---------------|---------------|---------------|---------------|
---------------|---------------|---------------|---------------|
---------------|---------------|---------------|---------------|
---------------|---------------|---------------|---------------|
---------------|---------------|---------------|---------------|


  <                                                                 
  W                                                                 
-------------------|---------------|---------------|---------------|
-------------------|---------------|---------------|---------------|
-------------------|---------------|---------------|---------------|
--2----------------|---------------|---------------|---------------|
--2----------------|---------------|---------------|---------------|
--0----------------|---------------|---------------|---------------|
-------------------|---------------|---------------|---------------|


---------------|---------------|---------------|---------------|---------------|
---------------|---------------|---------------|---------------|---------------|
---------------|---------------|---------------|---------------|---------------|
---------------|---------------|---------------|---------------|---------------|
---------------|---------------|---------------|---------------|---------------|
---------------|---------------|---------------|---------------|---------------|
---------------|---------------|---------------|---------------|---------------|


---------------|---------------|---------------|---------------|---------------|
---------------|---------------|---------------|---------------|---------------|
---------------|---------------|---------------|---------------|---------------|
---------------|---------------|---------------|---------------|---------------|
---------------|---------------|---------------|---------------|---------------|
---------------|---------------|---------------|---------------|---------------|
---------------|---------------|---------------|---------------|---------------|


---------------|---------------|---------------|---------------|---------------|
---------------|---------------|---------------|---------------|---------------|
---------------|---------------|---------------|---------------|---------------|
---------------|---------------|---------------|---------------|---------------|
---------------|---------------|---------------|---------------|---------------|
---------------|---------------|---------------|---------------|---------------|
---------------|---------------|---------------|---------------|---------------|


---------------|---------------|---------------|---------------|---------------|
---------------|---------------|---------------|---------------|---------------|
---------------|---------------|---------------|---------------|---------------|
---------------|---------------|---------------|---------------|---------------|
---------------|---------------|---------------|---------------|---------------|
---------------|---------------|---------------|---------------|---------------|
---------------|---------------|---------------|---------------|---------------|


---------------|---------------|---------------|---------------|---------------|
---------------|---------------|---------------|---------------|---------------|
---------------|---------------|---------------|---------------|---------------|
---------------|---------------|---------------|---------------|---------------|
---------------|---------------|---------------|---------------|---------------|
---------------|---------------|---------------|---------------|---------------|
---------------|---------------|---------------|---------------|---------------|


---------------|---------------|---------------|---------------|---------------|
---------------|---------------|---------------|---------------|---------------|
---------------|---------------|---------------|---------------|---------------|
---------------|---------------|---------------|---------------|---------------|
---------------|---------------|---------------|---------------|---------------|
---------------|---------------|---------------|---------------|---------------|
---------------|---------------|---------------|---------------|---------------|


---------------|---------------|---------------|---------------|---------------|
---------------|---------------|---------------|---------------|---------------|
---------------|---------------|---------------|---------------|---------------|
---------------|---------------|---------------|---------------|---------------|
---------------|---------------|---------------|---------------|---------------|
---------------|---------------|---------------|---------------|---------------|
---------------|---------------|---------------|---------------|---------------|


---------------|---------------|---------------|---------------|---------------|
---------------|---------------|---------------|---------------|---------------|
---------------|---------------|---------------|---------------|---------------|
---------------|---------------|---------------|---------------|---------------|
---------------|---------------|---------------|---------------|---------------|
---------------|---------------|---------------|---------------|---------------|
---------------|---------------|---------------|---------------|---------------|


---------------|---------------|---------------|---------------|---------------|
---------------|---------------|---------------|---------------|---------------|
---------------|---------------|---------------|---------------|---------------|
---------------|---------------|---------------|---------------|---------------|
---------------|---------------|---------------|---------------|---------------|
---------------|---------------|---------------|---------------|---------------|
---------------|---------------|---------------|---------------|---------------|


---------------|---------------|---------------|---------------|---------------|
---------------|---------------|---------------|---------------|---------------|
---------------|---------------|---------------|---------------|---------------|
---------------|---------------|---------------|---------------|---------------|
---------------|---------------|---------------|---------------|---------------|
---------------|---------------|---------------|---------------|---------------|
---------------|---------------|---------------|---------------|---------------|


                  E  S S S S E  E  E  E  E     E  S S S S E  E  E  E  E   
---------------|----------------------------|----------------------------|
---------------|----------------------------|----------------------------|
---------------|----------------------------|----------------------------|
---------------|----------------------------|----------------------------|
---------------|----------------------------|----------------------------|
---------------|--0--0-0-L-0-0--0--------0--|--0--0-0-L-0-0--0--------0--|
---------------|----------------------------|----------------------------|


  E  S S S S E  E  E  E  E     E  S S S S E  E  E  E  E   
----------------------------|----------------------------|
----------------------------|----------------------------|
----------------------------|----------------------------|
----------------------------|----------------------------|
----------------------------|----------------------------|
--2--2-2-L-2-2--2--------2--|--2--2-2-L-2-2--2--2--3--3--|
----------------------------|----------------------------|


  E  S S S S E  E  E  E  E     E  S S S S E  E  E  E  E   
----------------------------|----------------------------|
----------------------------|----------------------------|
----------------------------|----------------------------|
----------------------------|----------------------------|
----------------------------|----------------------------|
--0--0-0-L-0-0--0--------0--|--0--0-0-L-0-0--0--------0--|
----------------------------|----------------------------|


  E  S S S S E  E  E  E  E     E  S S S S E  E  E  E  E   
----------------------------|----------------------------|
----------------------------|----------------------------|
----------------------------|----------------------------|
----------------------------|----------------------------|
----------------------------|----------------------------|
--2--2-2-L-2-2--2--------2--|--2--2-2-L-2-2--2--2--3--3--|
----------------------------|----------------------------|


  S S S S S S S S S S S S S S S S    S E.  H.                            
----------------------------------|---------------------|---------------|
----------------------------------|---------------------|---------------|
----------------------------------|---------------------|---------------|
----------------------------------|---------------------|---------------|
--2-2---2-2---2-2---2-2---2-2---2-|--2------------------|---------------|
--0-0---0-0---0-0---0-0---0-0---0-|--0------------------|---------------|
----------------------------------|---------------------|---------------|


                         W                   W                 
---------------|------|-------------------|-------------------|
---------------|------|-------------------|-------------------|
---------------|------|-------------------|-------------------|
---------------|------|--5----------------|--L----------------|
---------------|------|--5----------------|--L----------------|
---------------|------|--3----------------|--L----------------|
---------------|------|--3----------------|--L----------------|


  |--3-|  |--3-|              |--3-|  |--3-|             
  Q    E  Q    E  H           Q    E  Q    E  Q    Q     
---------------------------|----------------------------|
---------------------------|----------------------------|
---------------------------|----------------------------|
---------------------------|----------------------------|
---------------------------|------------------8---------|
--3----3--3----3--1--------|--3----3--3----3--6----1----|
---------------------------|----------------------------|


  |--3-|  |--3-|              |--3-|  |--3-|             
  Q    E  Q    E  H           Q    E  Q    E  Q    Q     
---------------------------|----------------------------|
---------------------------|----------------------------|
---------------------------|----------------------------|
---------------------------|----------------------------|
---------------------------|------------------8---------|
--3----3--3----3--1--------|--3----3--3----3--6----1----|
---------------------------|----------------------------|


  |--3-|  |--3-|              |--3-|  |--3-|             
  Q    E  Q    E  H           Q    E  Q    E  Q    Q     
---------------------------|----------------------------|
---------------------------|----------------------------|
---------------------------|----------------------------|
---------------------------|----------------------------|
---------------------------|------------------8---------|
--3----3--3----3--1--------|--3----3--3----3--6----1----|
---------------------------|----------------------------|


  |--3-|  |--3-|              |--3-|  |--3-|             
  Q    E  Q    E  H           Q    E  Q    E  Q    Q     
---------------------------|----------------------------|
---------------------------|----------------------------|
---------------------------|----------------------------|
---------------------------|----------------------------|
---------------------------|------------------8---------|
--3----3--3----3--1--------|--3----3--3----3--6----1----|
---------------------------|----------------------------|


  |--3-|  |--3-|              |--3-|  |--3-|              
  Q    E  Q    E  H           Q    E  Q    E   Q    Q     
---------------------------|-----------------------------|
---------------------------|-----------------------------|
---------------------------|-----------------------------|
---------------------------|-----------------------------|
---------------------------|------------------11---------|
--6----6--6----6--4--------|--6----6--6----6---9----4----|
---------------------------|-----------------------------|


  |--3-|  |--3-|              |--3-|  |--3-|              
  Q    E  Q    E  H           Q    E  Q    E   Q    Q     
---------------------------|-----------------------------|
---------------------------|-----------------------------|
---------------------------|-----------------------------|
---------------------------|-----------------------------|
---------------------------|------------------11---------|
--6----6--6----6--4--------|--6----6--6----6---9----4----|
---------------------------|-----------------------------|


  |--3-|  |--3-|              |--3-|  |--3-|              
  Q    E  Q    E  H           Q    E  Q    E   Q    Q     
---------------------------|-----------------------------|
---------------------------|-----------------------------|
---------------------------|-----------------------------|
---------------------------|-----------------------------|
---------------------------|------------------11---------|
--6----6--6----6--4--------|--6----6--6----6---9----4----|
---------------------------|-----------------------------|


  |--3-|  |--3-|              |--3-|  |--3-|              
  Q    E  Q    E  H           Q    E  Q    E   Q    Q     
---------------------------|-----------------------------|
---------------------------|-----------------------------|
---------------------------|-----------------------------|
---------------------------|-----------------------------|
---------------------------|------------------11---------|
--6----6--6----6--4--------|--6----6--6----6---9----4----|
---------------------------|-----------------------------|


  |--3-|  |--3--|       |--3--|                          
  Q    E  E  E  E  Q    E  E  E     Q    Q    Q    Q     
---------------------------------|----------------------|
---------------------------------|----------------------|
---------------------------------|----------------------|
--5----5--5--5--5--4----5--5--5--|--4----7---------5----|
---------------------------------|------------7---------|
---------------------------------|----------------------|
---------------------------------|----------------------|


  |--3-|  |--3--|       |--3--|                                              
  Q    E  E  E  E  Q    E  E  E     Q    Q    Q    Q       W                 
---------------------------------|----------------------|-------------------|
---------------------------------|----------------------|-------------------|
---------------------------------|----------------------|-------------------|
--4----4--4--4--4--3----4--4--4--|--3----6---------4----|-------------------|
---------------------------------|------------6---------|-------------------|
---------------------------------|----------------------|-------------------|
---------------------------------|----------------------|-------------------|


  |--3--|  |-3|    |--3--|  |-3|                            
  E  E  E  E  Q    E  E  E  E  Q       Q    Q    Q    Q     
------------------------------------|----------------------|
------------------------------------|----------------------|
----------------------------5-------|----------------------|
--5--3--5--7-------8--7--8----------|--7----7---------7----|
------------------------------------|----------------------|
------------------------------------|----------------------|
------------------------------------|----------------------|


            |--3--|          |--3-|  |--3-|            
  Q    Q    E  E  E  Q       Q    E  Q    E  H         
--------------------------|---------------------------|
--------------------------|---------------------------|
--------------------------|---------------------------|
--7---------7--7--7--7----|---------------------------|
--------------------------|---------------------------|
--------------------------|--3----3--3----3--1--------|
--------------------------|---------------------------|


  |--3-|  |--3-|               |--3-|  |--3-|            
  Q    E  Q    E  Q    Q       Q    E  Q    E  H         
----------------------------|---------------------------|
----------------------------|---------------------------|
----------------------------|---------------------------|
----------------------------|---------------------------|
------------------8---------|---------------------------|
--3----3--3----3--6----1----|--3----3--3----3--1--------|
----------------------------|---------------------------|


  |--3-|  |--3-|               |--3-|  |--3-|            
  Q    E  Q    E  Q    Q       Q    E  Q    E  H         
----------------------------|---------------------------|
----------------------------|---------------------------|
----------------------------|---------------------------|
----------------------------|---------------------------|
------------------8---------|---------------------------|
--3----3--3----3--6----1----|--3----3--3----3--1--------|
----------------------------|---------------------------|


  |--3-|  |--3-|               |--3-|  |--3-|            
  Q    E  Q    E  Q    Q       Q    E  Q    E  H         
----------------------------|---------------------------|
----------------------------|---------------------------|
----------------------------|---------------------------|
----------------------------|---------------------------|
------------------8---------|---------------------------|
--3----3--3----3--6----1----|--3----3--3----3--1--------|
----------------------------|---------------------------|


  |--3-|  |--3-|               |--3-|  |--3-|            
  Q    E  Q    E  Q    Q       Q    E  Q    E  H         
----------------------------|---------------------------|
----------------------------|---------------------------|
----------------------------|---------------------------|
----------------------------|---------------------------|
------------------8---------|---------------------------|
--3----3--3----3--6----1----|--6----6--6----6--4--------|
----------------------------|---------------------------|


  |--3-|  |--3-|                |--3-|  |--3-|            
  Q    E  Q    E   Q    Q       Q    E  Q    E  H         
-----------------------------|---------------------------|
-----------------------------|---------------------------|
-----------------------------|---------------------------|
-----------------------------|---------------------------|
------------------11---------|---------------------------|
--6----6--6----6---9----4----|--6----6--6----6--4--------|
-----------------------------|---------------------------|


  |--3-|  |--3-|                |--3-|  |--3-|            
  Q    E  Q    E   Q    Q       Q    E  Q    E  H         
-----------------------------|---------------------------|
-----------------------------|---------------------------|
-----------------------------|---------------------------|
-----------------------------|---------------------------|
------------------11---------|---------------------------|
--6----6--6----6---9----4----|--6----6--6----6--4--------|
-----------------------------|---------------------------|


  |--3-|  |--3-|                |--3-|  |--3-|            
  Q    E  Q    E   Q    Q       Q    E  Q    E  H         
-----------------------------|---------------------------|
-----------------------------|---------------------------|
-----------------------------|---------------------------|
-----------------------------|---------------------------|
------------------11---------|---------------------------|
--6----6--6----6---9----4----|--6----6--6----6--4--------|
-----------------------------|---------------------------|


  |--3-|  |--3-|                |--3-|  |--3--|       |--3--|   
  Q    E  Q    E   Q    Q       Q    E  E  E  E  Q    E  E  E   
-----------------------------|---------------------------------|
-----------------------------|---------------------------------|
-----------------------------|---------------------------------|
-----------------------------|--5----5--5--5--5--4----5--5--5--|
------------------11---------|---------------------------------|
--6----6--6----6---9----4----|---------------------------------|
-----------------------------|---------------------------------|


                         |--3-|  |--3--|       |--3--|                          
  Q    Q    Q    Q       Q    E  E  E  E  Q    E  E  E     Q    Q    Q    Q     
----------------------|---------------------------------|----------------------|
----------------------|---------------------------------|----------------------|
----------------------|---------------------------------|----------------------|
--4----7---------5----|--4----4--4--4--4--3----4--4--4--|--3----6---------4----|
------------7---------|---------------------------------|------------6---------|
----------------------|---------------------------------|----------------------|
----------------------|---------------------------------|----------------------|


                      |--3--|  |-3|    |--3--|  |-3|                            
  W                   E  E  E  E  Q    E  E  E  E  Q       Q    Q    Q    Q     
-------------------|------------------------------------|----------------------|
-------------------|------------------------------------|----------------------|
-------------------|----------------------------5-------|----------------------|
-------------------|--5--3--5--7-------8--7--8----------|--7----7---------7----|
-------------------|------------------------------------|----------------------|
-------------------|------------------------------------|----------------------|
-------------------|------------------------------------|----------------------|


            |--3--|                                           |--3--|        
  Q    Q    E  E  E  Q       Q    Q    Q    Q       Q    Q    E  E  E  Q     
--------------------------|----------------------|--------------------------|
--------------------------|----------------------|--------------------------|
--------------------------|----------------------|--------------------------|
--7---------7--7--7--7----|--8----8---------8----|--8---------8--8--8--8----|
--------------------------|----------------------|--------------------------|
--------------------------|----------------------|--------------------------|
--------------------------|----------------------|--------------------------|


  |--3--|  |--3--|  |--3--|  |--3--|     |--3--|  |--3--|  |--3--|  |--3--|   
  E  E  E  E  E  E  E  E  E  E  E  E     E  E  E  E  E  E  E  E  E  E  E  E   
--------------------------------------|--------------------------------------|
--------------------------------------|--------------------------------------|
--------------------------------------|--------------------------------------|
--------------------------------------|--------------------------------------|
--------------------------------------|--------------------------------------|
--------------------------------------|--------------------------------------|
--0--0--0--0--0--0--1--1--1--1--1--1--|--2--2--2--2--2--2--3--3--3--4--4--4--|


  Q    H.              W                   Q    H.                             
--------------------|-------------------|--------------------|---------------||
--------------------|-------------------|--------------------|---------------||
--------------------|-------------------|--------------------|---------------||
--------------------|-------------------|--------------------|---------------||
-------2------------|--L----------------|--L-----------------|---------------||
-------0------------|--L----------------|--L-----------------|---------------||
--0----0------------|--L----------------|--L-----------------|---------------||



_________________________________________________________________________________

Clean guitar



                                      H.              H        Q     
D#||-------|-------|-------|-------|---------------|----------------|
A#||-------|-------|-------|-------|--5------------|--3--------1----|
F#||-------|-------|-------|-------|---------------|----------------|
C#||-------|-------|-------|-------|--2------------|--3-------------|
G#||-------|-------|-------|-------|---------------|----------------|
D#||-------|-------|-------|-------|---------------|----------------|


  H.              Q    Q    Q       H.              H        Q     
---------------|-----------------|---------------|----------------|
--0------------|-----------------|--5------------|--3--------1----|
---------------|--2----0----L----|---------------|----------------|
--2------------|--5----L----3----|--2------------|--3-------------|
---------------|-----------------|---------------|----------------|
---------------|-----------------|---------------|----------------|


  T T S Q    Q.        H.                                            
--------------------|---------------|---------------|---------------|
--0-1-0------L------|--8------------|---------------|---------------|
--------------------|---------------|---------------|---------------|
--2-----L----L------|--5------------|---------------|---------------|
--------------------|---------------|---------------|---------------|
--------------------|---------------|---------------|---------------|


---------------|---------------|---------------|---------------|---------------|
---------------|---------------|---------------|---------------|---------------|
---------------|---------------|---------------|---------------|---------------|
---------------|---------------|---------------|---------------|---------------|
---------------|---------------|---------------|---------------|---------------|
---------------|---------------|---------------|---------------|---------------|


---------------|---------------|---------------|---------------|---------------|
---------------|---------------|---------------|---------------|---------------|
---------------|---------------|---------------|---------------|---------------|
---------------|---------------|---------------|---------------|---------------|
---------------|---------------|---------------|---------------|---------------|
---------------|---------------|---------------|---------------|---------------|


---------------|---------------|---------------|---------------|---------------|
---------------|---------------|---------------|---------------|---------------|
---------------|---------------|---------------|---------------|---------------|
---------------|---------------|---------------|---------------|---------------|
---------------|---------------|---------------|---------------|---------------|
---------------|---------------|---------------|---------------|---------------|


---------------|---------------|---------------|---------------|---------------|
---------------|---------------|---------------|---------------|---------------|
---------------|---------------|---------------|---------------|---------------|
---------------|---------------|---------------|---------------|---------------|
---------------|---------------|---------------|---------------|---------------|
---------------|---------------|---------------|---------------|---------------|


---------------|---------------|---------------|---------------|---------------|
---------------|---------------|---------------|---------------|---------------|
---------------|---------------|---------------|---------------|---------------|
---------------|---------------|---------------|---------------|---------------|
---------------|---------------|---------------|---------------|---------------|
---------------|---------------|---------------|---------------|---------------|


---------------|---------------|---------------|---------------|---------------|
---------------|---------------|---------------|---------------|---------------|
---------------|---------------|---------------|---------------|---------------|
---------------|---------------|---------------|---------------|---------------|
---------------|---------------|---------------|---------------|---------------|
---------------|---------------|---------------|---------------|---------------|


                                                                  H.            
---------------|---------------|---------------|---------------|---------------|
---------------|---------------|---------------|---------------|--5------------|
---------------|---------------|---------------|---------------|---------------|
---------------|---------------|---------------|---------------|--2------------|
---------------|---------------|---------------|---------------|---------------|
---------------|---------------|---------------|---------------|---------------|


  H        Q       H.              Q    Q    Q       H.            
----------------|---------------|-----------------|---------------|
--3--------1----|--0------------|-----------------|--5------------|
----------------|---------------|--2----0----L----|---------------|
--3-------------|--2------------|--5----L----3----|--2------------|
----------------|---------------|-----------------|---------------|
----------------|---------------|-----------------|---------------|


  H        Q       T T S Q    Q.        W                                 
----------------|--------------------|-------------------|---------------|
--3--------1----|--0-1-0------L------|--8----------------|---------------|
----------------|--------------------|-------------------|---------------|
--3-------------|--2-----L----L------|--5----------------|---------------|
----------------|--------------------|-------------------|---------------|
----------------|--------------------|-------------------|---------------|


---------------|---------------|---------------|---------------|---------------|
---------------|---------------|---------------|---------------|---------------|
---------------|---------------|---------------|---------------|---------------|
---------------|---------------|---------------|---------------|---------------|
---------------|---------------|---------------|---------------|---------------|
---------------|---------------|---------------|---------------|---------------|


                                  W                   W                 
---------------|---------------|-------------------|-------------------|
---------------|---------------|--5----------------|--5----------------|
---------------|---------------|--5----------------|--5----------------|
---------------|---------------|--7----------------|--7----------------|
---------------|---------------|-------------------|-------------------|
---------------|---------------|-------------------|-------------------|


  W                   W                   W                   W                 
-------------------|-------------------|-------------------|-------------------|
--5----------------|--5----------------|--5----------------|--5----------------|
--6----------------|--6----------------|--5----------------|--5----------------|
--7----------------|--7----------------|--7----------------|--7----------------|
-------------------|-------------------|-------------------|-------------------|
-------------------|-------------------|-------------------|-------------------|


  W                   W                    W                 
-------------------|-------------------|--------------------|
--5----------------|--5----------------|--10----------------|
--6----------------|--6----------------|--10----------------|
--7----------------|--7----------------|--10----------------|
-------------------|-------------------|--------------------|
-------------------|-------------------|--------------------|


   W                    W                   W                 
--------------------|--------------------|-------------------|
--10----------------|--10----------------|--8----------------|
--10----------------|---9----------------|--9----------------|
--10----------------|---9----------------|--9----------------|
--------------------|--------------------|-------------------|
--------------------|--------------------|-------------------|


   v                                                           
   W                    W                    W                 
---8----------------|---8----------------|---7----------------|
---8----------------|--10----------------|--10----------------|
---9----------------|--10----------------|---9----------------|
--10----------------|--10----------------|---9----------------|
--10----------------|---8----------------|---7----------------|
---8----------------|--------------------|--------------------|


   W                   W                   W                 
---7----------------|-------------------|-------------------|
--10----------------|--5----------------|--5----------------|
---9----------------|--5----------------|--5----------------|
---9----------------|--7----------------|--7----------------|
---7----------------|-------------------|-------------------|
--------------------|-------------------|-------------------|


  W                   W                   W                   W                 
-------------------|-------------------|-------------------|-------------------|
--5----------------|--5----------------|--5----------------|--5----------------|
--6----------------|--6----------------|--5----------------|--5----------------|
--7----------------|--7----------------|--7----------------|--7----------------|
-------------------|-------------------|-------------------|-------------------|
-------------------|-------------------|-------------------|-------------------|


  W                   W                    W                 
-------------------|-------------------|--------------------|
--5----------------|--5----------------|--10----------------|
--6----------------|--6----------------|--10----------------|
--7----------------|--7----------------|--10----------------|
-------------------|-------------------|--------------------|
-------------------|-------------------|--------------------|


   W                    W                   W                 
--------------------|--------------------|-------------------|
--10----------------|--10----------------|--8----------------|
--10----------------|---9----------------|--9----------------|
--10----------------|---9----------------|--9----------------|
--------------------|--------------------|-------------------|
--------------------|--------------------|-------------------|


   v                                                           
   W                    W                    W                 
---8----------------|---8----------------|---7----------------|
---8----------------|--10----------------|--10----------------|
---9----------------|--10----------------|---9----------------|
--10----------------|--10----------------|---9----------------|
--10----------------|---8----------------|---7----------------|
---8----------------|--------------------|--------------------|


            3    3    3 3                                                 
   H        Q    Q    S E.     H.           E  S S    H        Q.     E   
---7--------------------5---|--7------------L--5-3-|---------------------|
--10------------------5-----|----------------------|--7--------3------3--|
---9-------------7----------|----------------------|---------------------|
---9--------7---------------|----------------------|---------------------|
---7------------------------|----------------------|---------------------|
----------------------------|----------------------|---------------------|


  |----3----|                                                         
  Q    Q    Q    H           W                    H.           E  E   
------------5----5--------|--L~----------------|--7------------5--7--|
--2----3------------------|--------------------|---------------------|
--------------------------|--------------------|---------------------|
--------------------------|--------------------|---------------------|
--------------------------|--------------------|---------------------|
--------------------------|--------------------|---------------------|


  H         H           W                   H         Q    T T E.   
--9--------10--------|--7----------------|--L~-----------------5---|
---------------------|-------------------|-------------------5-----|
---------------------|-------------------|-----------------7-------|
---------------------|-------------------|-------------------------|
---------------------|-------------------|-------------------------|
---------------------|-------------------|-------------------------|


                                               |----3----|               
  H.           E  S S    H        Q.     E     Q    Q    Q    Q.     E   
--7------------L--5-3-|---------------------|------------5----5---------|
----------------------|--7--------3------3--|--2----3----------------3--|
----------------------|---------------------|---------------------------|
----------------------|---------------------|---------------------------|
----------------------|---------------------|---------------------------|
----------------------|---------------------|---------------------------|


  |----3----|                                                           
  Q    Q    Q    H            H.           E  E     H         H         
------------5----L~--------|--7------------5--7--|--9--------10--------|
--2----3-------------------|---------------------|---------------------|
---------------------------|---------------------|---------------------|
---------------------------|---------------------|---------------------|
---------------------------|---------------------|---------------------|
---------------------------|---------------------|---------------------|


   H.            E   S  S     E.   E.   E   Q     E   S  S  
--------------------------|--------------------------------|
--17~------------L--15-17-|--12----------------------------|
--------------------------|-------14---16------------------|
--------------------------|----------------14~----L--14-16-|
--------------------------|--------------------------------|
--------------------------|--------------------------------|


   E.   E.   E   E.   E.   E     W                  
------------------------------|--------------------|
------------------------------|--------------------|
--12---14---12----------------|--------------------|
----------------16---12-------|--------------------|
--------------------------14--|--L~----------------|
------------------------------|--------------------|


  E  S S S E  S E  E  E  E     E.  E.   E  E  E  E  S  S  
-------------------------5--|--7-------10--L--8--L--7h-8-|
--------------5-L--7--8-----|------5---------------------|
-----2-4-5-7----------------|----------------------------|
----------------------------|----------------------------|
----------------------------|----------------------------|
----------------------------|----------------------------|


  E.   E.  E   H            H         Q    Q       E.  E.  E  E.  E.  E   
--7---------------------|-----------------------|------------------------|
------10---8--10--------|---L~--------8----7----|--7---8---7-------------|
------------------------|-----------------------|-------------7-------9--|
------------------------|-----------------------|-----------------9------|
------------------------|-----------------------|------------------------|
------------------------|-----------------------|------------------------|


  E  E  H.                                                            
---------------------|---------------|---------------|---------------|
---------------------|---------------|---------------|---------------|
--L------------------|---------------|---------------|---------------|
---------------------|---------------|---------------|---------------|
---------------------|---------------|---------------|---------------|
---------------------|---------------|---------------|---------------|


---------------|---------------|---------------|---------------|---------------|
---------------|---------------|---------------|---------------|---------------|
---------------|---------------|---------------|---------------|---------------|
---------------|---------------|---------------|---------------|---------------|
---------------|---------------|---------------|---------------|---------------|
---------------|---------------|---------------|---------------|---------------|


---------------|---------------|---------------|---------------|---------------|
---------------|---------------|---------------|---------------|---------------|
---------------|---------------|---------------|---------------|---------------|
---------------|---------------|---------------|---------------|---------------|
---------------|---------------|---------------|---------------|---------------|
---------------|---------------|---------------|---------------|---------------|


---------------|---------------|---------------|---------------|---------------|
---------------|---------------|---------------|---------------|---------------|
---------------|---------------|---------------|---------------|---------------|
---------------|---------------|---------------|---------------|---------------|
---------------|---------------|---------------|---------------|---------------|
---------------|---------------|---------------|---------------|---------------|


---------------|---------------|---------------|---------------|---------------|
---------------|---------------|---------------|---------------|---------------|
---------------|---------------|---------------|---------------|---------------|
---------------|---------------|---------------|---------------|---------------|
---------------|---------------|---------------|---------------|---------------|
---------------|---------------|---------------|---------------|---------------|


---------------|---------------|---------------|---------------|---------------|
---------------|---------------|---------------|---------------|---------------|
---------------|---------------|---------------|---------------|---------------|
---------------|---------------|---------------|---------------|---------------|
---------------|---------------|---------------|---------------|---------------|
---------------|---------------|---------------|---------------|---------------|


---------------|---------------|---------------|---------------|---------------|
---------------|---------------|---------------|---------------|---------------|
---------------|---------------|---------------|---------------|---------------|
---------------|---------------|---------------|---------------|---------------|
---------------|---------------|---------------|---------------|---------------|
---------------|---------------|---------------|---------------|---------------|


---------------|---------------|---------------|---------------|---------------|
---------------|---------------|---------------|---------------|---------------|
---------------|---------------|---------------|---------------|---------------|
---------------|---------------|---------------|---------------|---------------|
---------------|---------------|---------------|---------------|---------------|
---------------|---------------|---------------|---------------|---------------|


---------------|---------------|---------------|---------------|---------------|
---------------|---------------|---------------|---------------|---------------|
---------------|---------------|---------------|---------------|---------------|
---------------|---------------|---------------|---------------|---------------|
---------------|---------------|---------------|---------------|---------------|
---------------|---------------|---------------|---------------|---------------|


---------------|---------------|---------------|---------------|---------------|
---------------|---------------|---------------|---------------|---------------|
---------------|---------------|---------------|---------------|---------------|
---------------|---------------|---------------|---------------|---------------|
---------------|---------------|---------------|---------------|---------------|
---------------|---------------|---------------|---------------|---------------|


---------------|---------------|---------------|---------------|---------------|
---------------|---------------|---------------|---------------|---------------|
---------------|---------------|---------------|---------------|---------------|
---------------|---------------|---------------|---------------|---------------|
---------------|---------------|---------------|---------------|---------------|
---------------|---------------|---------------|---------------|---------------|


---------------|---------------|---------------|---------------|---------------|
---------------|---------------|---------------|---------------|---------------|
---------------|---------------|---------------|---------------|---------------|
---------------|---------------|---------------|---------------|---------------|
---------------|---------------|---------------|---------------|---------------|
---------------|---------------|---------------|---------------|---------------|


---------------|---------------|---------------||
---------------|---------------|---------------||
---------------|---------------|---------------||
---------------|---------------|---------------||
---------------|---------------|---------------||
---------------|---------------|---------------||




                            Chrono Trigger Medley                               


                                                                Yasunori Mitsuda

Tab and arrangement by Thiago Schiefer (if you'd like, check my original work at 
www.myspace.com/thiagoschiefer)

Baixo



F#||-------|-------|-------|-------|-------|-------|-------|-------|-------|
C#||-------|-------|-------|-------|-------|-------|-------|-------|-------|
G#||-------|-------|-------|-------|-------|-------|-------|-------|-------|
D#||-------|-------|-------|-------|-------|-------|-------|-------|-------|


                          E.  S E  E  E  E     E.  S E  E  E  E   
-------|-------|-------|--------------------|--------------------|
-------|-------|-------|--------------------|--------------------|
-------|-------|-------|--------------------|--------------------|
-------|-------|-------|--0---0-0--1--1--1--|--0---0-0--3--3--3--|


  E.  S E  E  E  E     E.  S E  E  E  E     E.  S E  E  E  E   
--------------------|--------------------|--------------------|
--------------------|--------------------|--------------------|
--------------------|--------------------|--------------------|
--0---0-0--1--1--1--|--0---0-0--3--3--3--|--0---0-0--1--1--1--|


  E.  S E  E  E  E     E.  S E  E  E  E     E.  S E  E  E  E   
--------------------|--------------------|--------------------|
--------------------|--------------------|--------------------|
--------------------|--------------------|--------------------|
--0---0-0--3--3--3--|--0---0-0--1--1--1--|--0---0-0--3--3--3--|


  E.  S E  E  E  E     E.  S E  E  E  E     E.  S E  E  E  E   
--------------------|--------------------|--------------------|
--------------------|--------------------|--------------------|
--------------------|--------------------|--------------------|
--0---0-0--1--1--1--|--0---0-0--3--3--3--|--0---0-0--1--1--1--|


  E.  S E  E  E  E     E.  S E  E  E  E     E.  S E  E  E  E   
--------------------|--------------------|--------------------|
--------------------|--------------------|--------------------|
--------------------|--------------------|--------------------|
--0---0-0--3--3--3--|--0---0-0--1--1--1--|--0---0-0--3--3--3--|


  E.  S E  E  E  E     E.  S E  E  E  E     E  S E  S E  E  E   
--------------------|--------------------|---------------------|
--------------------|--------------------|---------------------|
--------------------|--------------------|--0--0-0--0-0--0--0--|
--0---0-0--1--1--1--|--0---0-0--3--3--3--|---------------------|


  E  S E  S E  E  E     E  S E  S E  E  E     E  S E  S E  E  E   
---------------------|---------------------|---------------------|
---------------------|---------------------|---------------------|
---------------------|---------------------|---------------------|
--3--3-3--3-3--3--3--|--0--0-0--0-0--0--0--|--3--3-3--3-3--3--3--|


  E  S E  S E  E  E     E  S E  S E  E  E     E  S E  S E  E  E   
---------------------|---------------------|---------------------|
---------------------|---------------------|---------------------|
--0--0-0--0-0--0--0--|---------------------|--3--3-3--3-5--5--5--|
---------------------|--3--3-3--3-3--3--3--|---------------------|


  E  S E  S E  E  E     E  S E  E  S E     E  E  S E  E  S E  E   
---------------------|------------------|------------------------|
---------------------|------------------|------------------------|
--7--7-7--7-7--5--3--|---------------3--|------------------6--5--|
---------------------|--5--3-5--5--3----|--5--5--3-5--5--3-------|


  E  S E  E  S E     E  E  S E  E  S E  E     E  S E  E  S E   
------------------|------------------------|------------------|
------------------|------------------------|------------------|
---------------3--|------------------6--5--|---------------3--|
--5--3-5--5--3----|--5--5--3-5--5--3-------|--5--3-5--5--3----|


  E  E  S E  E  S E  E     E  S E  E  S E     E  E  S E  E  S E  E   
------------------------|------------------|------------------------|
------------------------|------------------|------------------------|
------------------6--5--|---------------3--|------------------6--5--|
--5--5--3-5--5--3-------|--5--3-5--5--3----|--5--5--3-5--5--3-------|


  Q    Q    Q       H        Q       H        Q       H.            
-----------------|----------------|----------------|---------------|
-----------------|----------------|--2-------------|---------------|
--7----5----3----|--2--------2----|-----------2----|---------------|
-----------------|----------------|----------------|--0------------|


  H.              H.              H.              H.              H.            
---------------|---------------|---------------|---------------|---------------|
---------------|---------------|---------------|---------------|---------------|
---------------|---------------|---------------|---------------|---------------|
--L------------|--1------------|--0------------|--3------------|--0------------|


  H.              H.              Q    E  Q    Q    E   
---------------|---------------|-----------------------|
---------------|---------------|-----------------------|
---------------|---------------|--------------------7--|
--1------------|--0------------|--3-------3------------|


  Q    E  E  E  Q    E     Q    E  E  E  Q    E     Q    E  E  E  Q    E   
------------------------|------------------------|------------------------|
------------------------|------------------------|------------------------|
---------------------7--|---------------------7--|------------------------|
--5-------5--L----------|--5-------5--L----------|--2-------2--L-------2--|


  Q    E  E  E  Q    E     Q    E  E  E  Q    E     Q    E  E  E  Q    E   
------------------------|------------------------|------------------------|
------------------------|------------------------|------------------------|
------------------------|------------------------|------------------------|
--2-------2--L-------2--|--1-------1--L-------1--|--1-------1--L-------1--|


  Q    E  E  E  Q    E     Q    E  E  E  Q    E     Q    E  E  Q    E  E   
------------------------|------------------------|------------------------|
------------------------|------------------------|------------------------|
------------------------|------------------------|------------------------|
--0-------0--L-------0--|--0-------0--L-------0--|--5----5--5--L----L--5--|


  Q    E  E  Q    E  E     Q    E  E  Q    E  E     Q    E  E  Q    E  E   
------------------------|------------------------|------------------------|
------------------------|------------------------|------------------------|
------------------------|------------------------|------------------------|
--5----5--5--L----L--5--|--2----L--2--L----L--2--|--2----L--2--L----L--0--|


  Q    E  E  Q    E  E     Q    E  E  Q    E  E     Q    E  E  Q    E  E   
------------------------|------------------------|------------------------|
------------------------|------------------------|------------------------|
------------------------|------------------------|------------------------|
--5----5--5--L----L--5--|--5----5--5--L----L--5--|--2----L--2--L----L--2--|


  Q    E  E  Q    E  E     Q    E  E  Q    E  E     Q    E  E  Q    E  E   
------------------------|------------------------|------------------------|
------------------------|------------------------|------------------------|
------------------------|------------------------|------------------------|
--2----L--2--L----L--0--|--1----1--1--L----L--1--|--1----L--1--L----L--1--|


  Q    E  E  Q    E  E     Q    E  E  Q    E  E     Q    E  E  Q    E  E   
------------------------|------------------------|------------------------|
------------------------|------------------------|------------------------|
------------------------|------------------------|--3----3--3--L----L--3--|
--0----L--0--L----L--0--|--0----L--0--L----L--0--|------------------------|


                                                             |----3----|     
  Q    E  E  H           Q    E  E  Q    E  E     Q    E  E  Q    Q    Q     
----------------------|------------------------|----------------------------|
--3----L--3--L--------|------------------------|----------------------------|
----------------------|------------------------|----------------------------|
----------------------|--0----0--0--L----L--0--|--0----0--0--0----0----0----|


  Q    E  E  Q    E  E     Q    E  E  Q    E  E     Q    E  E  Q    E  E   
------------------------|------------------------|------------------------|
------------------------|------------------------|------------------------|
------------------------|------------------------|------------------------|
--5----5--5--L----L--5--|--5----5--5--L----L--5--|--2----L--2--L----L--2--|


  Q    E  E  Q    E  E     Q    E  E  Q    E  E     Q    E  E  Q    E  E   
------------------------|------------------------|------------------------|
------------------------|------------------------|------------------------|
------------------------|------------------------|------------------------|
--2----L--2--L----L--0--|--5----5--5--L----L--5--|--5----5--5--L----L--5--|


  Q    E  E  Q    E  E     Q    E  E  Q    E  E     Q    E  E  Q    E  E   
------------------------|------------------------|------------------------|
------------------------|------------------------|------------------------|
------------------------|------------------------|------------------------|
--2----L--2--L----L--2--|--2----L--2--L----L--0--|--1----1--1--L----L--1--|


  Q    E  E  Q    E  E     Q    E  E  Q    E  E     Q    E  E  Q    E  E   
------------------------|------------------------|------------------------|
------------------------|------------------------|------------------------|
------------------------|------------------------|------------------------|
--1----L--1--L----L--1--|--0----L--0--L----L--0--|--0----L--0--L----L--0--|


  Q    E  E  Q    E  E     Q    E  E  H           Q    E  E  Q    E  E   
------------------------|----------------------|------------------------|
------------------------|--3----L--3--L--------|------------------------|
--3----3--3--L----L--3--|----------------------|------------------------|
------------------------|----------------------|--0----0--0--L----L--0--|


             |----3----|                                             
  Q    E  E  Q    Q    Q       W                   W                 
----------------------------|-------------------|-------------------|
----------------------------|-------------------|-------------------|
----------------------------|-------------------|-------------------|
--0----0--0--0----0----0----|--3----------------|--5----------------|


  W                   H        H           W                 
-------------------|--------------------|-------------------|
-------------------|--------------------|-------------------|
-------------------|--------------------|-------------------|
--7----------------|--L--------5--------|--3----------------|


  W                   W                   H        H         
-------------------|-------------------|--------------------|
-------------------|-------------------|--------------------|
-------------------|-------------------|--------------------|
--2----------------|--7----------------|--L--------5--------|


  W                   W                   W                 
-------------------|-------------------|-------------------|
-------------------|-------------------|-------------------|
-------------------|-------------------|-------------------|
--3----------------|--5----------------|--7----------------|


  H        H           W                   W                 
--------------------|-------------------|-------------------|
--------------------|-------------------|-------------------|
--------------------|-------------------|-------------------|
--L--------5--------|--3----------------|--2----------------|


  E.  E.  E  H           E.  E.  E  H           E.  E.  E  H         
----------------------|----------------------|----------------------|
----------------------|----------------------|----------------------|
--2---0---2-----------|--2---0---2-----------|--5-------5-----------|
-------------0--------|-------------0--------|------5------0--------|


  E.  E.  E  E  E  E  E     E.  E.  E  H           E.  E.  E  H         
-------------------------|----------------------|----------------------|
-------------------------|----------------------|----------------------|
--5-------5--7--5--------|--2---0---2-----------|--2---0---2-----------|
------5------------7--5--|-------------0--------|-------------0--------|


  E.  E.  E  H           E.  E.  E  E  E  E  E     S E  S E  S S S S E  S E  S  
----------------------|-------------------------|------------------------------|
----------------------|-------------------------|------------------------------|
--5-------5-----------|--5-------5--7--5--------|------------------------------|
------5------0--------|------5------------7--5--|--0-0--0-0--0-0-L-0-0--0-0--0-|


  W                   W                   W                 
-------------------|-------------------|-------------------|
-------------------|-------------------|-------------------|
-------------------|-------------------|-------------------|
--0----------------|--L----------------|--L----------------|


  |--3-|  |--3-|  |--3-|  |--3-|     |--3-|  |--3-|  |--3-|  |--3-|   
  Q    E  Q    E  Q    E  Q    E     Q    E  Q    E  Q    E  Q    E   
----------------------------------|----------------------------------|
----------------------------------|----------------------------------|
----------------------------------|--5----5--5----5--5----5--5----5--|
--5----5--3----3--1----1--0----0--|----------------------------------|


  |--3-|  |--3-|  |--3-|  |--3-|     |--3-|  |--3-|  |--3-|  |--3-|   
  Q    E  Q    E  Q    E  Q    E     Q    E  Q    E  Q    E  Q    E   
----------------------------------|----------------------------------|
----------------------------------|----------------------------------|
--5----5--5----5--5----5--5----5--|----------------------------------|
----------------------------------|--3----3-------3--1----1--1----1--|


  |--3-|  |--3-|  |--3-|  |--3-|     |--3-|  |--3-|  |--3-|  |--3-|   
  Q    E  Q    E  Q    E  Q    E     Q    E  Q    E  Q    E  Q    E   
----------------------------------|----------------------------------|
----------------------------------|----------------------------------|
----------------------------------|----------------------------------|
--3----3-------3--6----6--4----4--|--3----3-------3--1----1--1----1--|


  |--3-|  |--3-|  |--3-|  |--3-|     |--3-|  |--3-|  |--3-|  |--3-|   
  Q    E  Q    E  Q    E  Q    E     Q    E  Q    E  Q    E  Q    E   
----------------------------------|----------------------------------|
----------------------------------|----------------------------------|
----------------------------------|----------------------------------|
--3----3-------3--6----6--4----4--|--3----3-------3--1----1--1----1--|


  |--3-|  |--3-|  |--3-|  |--3-|     |--3-|  |--3-|  |--3-|  |--3-|   
  Q    E  Q    E  Q    E  Q    E     Q    E  Q    E  Q    E  Q    E   
----------------------------------|----------------------------------|
----------------------------------|----------------------------------|
----------------------------------|----------------------------------|
--3----3-------3--6----6--4----4--|--3----3-------3--1----1--1----1--|


  |--3-|  |--3-|  |--3-|  |--3-|     |--3-|  |--3-|  |--3-|  |--3-|   
  Q    E  Q    E  Q    E  Q    E     Q    E  Q    E  Q    E  Q    E   
----------------------------------|----------------------------------|
----------------------------------|----------------------------------|
----------------------------------|----------------------------------|
--3----3-------3--6----6--4----4--|--6----6-------6--4----4--4----4--|


  |--3-|  |--3-|  |--3-|  |--3-|     |--3-|  |--3-|  |--3-|  |--3-|   
  Q    E  Q    E  Q    E  Q    E     Q    E  Q    E  Q    E  Q    E   
----------------------------------|----------------------------------|
----------------------------------|----------------------------------|
----------------------------------|----------------------------------|
--6----6-------6--9----9--7----7--|--6----6-------6--4----4--4----4--|


  |--3-|  |--3-|  |--3-|  |--3-|     |--3-|  |--3-|  |--3-|  |--3-|   
  Q    E  Q    E  Q    E  Q    E     Q    E  Q    E  Q    E  Q    E   
----------------------------------|----------------------------------|
----------------------------------|----------------------------------|
----------------------------------|----------------------------------|
--6----6-------6--9----9--7----7--|--6----6-------6--4----4--4----4--|


  |--3-|  |--3-|  |--3-|  |--3-|     |--3-|  |--3-|  |--3-|  |--3-|   
  Q    E  Q    E  Q    E  Q    E     Q    E  Q    E  Q    E  Q    E   
----------------------------------|----------------------------------|
----------------------------------|----------------------------------|
----------------------------------|----------------------------------|
--6----6-------6--9----9--7----7--|--6----6-------6--4----4--4----4--|


  |--3-|  |--3-|  |--3-|  |--3-|     |--3-|  |--3-|  |--3-|  |--3-|   
  Q    E  Q    E  Q    E  Q    E     Q    E  Q    E  Q    E  Q    E   
----------------------------------|----------------------------------|
----------------------------------|----------------------------------|
----------------------------------|----------------------------------|
--6----6-------6--9----9--7----7--|--3----3--3----3--2----2--3----3--|


                         |--3-|  |--3-|  |--3-|  |--3-|   
  Q    Q    Q    Q       Q    E  Q    E  Q    E  Q    E   
----------------------|----------------------------------|
----------------------|----------------------------------|
----------------------|----------------------------------|
--2----5----3----3----|--2----2--2----2--1----1--2----2--|


  Q    Q    Q    Q       Q    Q    Q    Q       Q    Q    Q    Q     
----------------------|----------------------|----------------------|
----------------------|----------------------|----------------------|
----------------------|----------------------|----------------------|
--1----4----1----1----|--1----5----3----6----|--1----5----3----6----|


                                           |--3--|  3       
  Q    Q      S  E.  Q       Q      S  E.  E  E  E  Q.      
--------------------------|--------------------------------|
--------------------------|--------------------------------|
--------------------------|--------------------------------|
--5----5s----(1)-----5----|--5s----(1)-----5--5--5--5------|


  |--3-|  |--3-|  |--3-|  |--3-|     |--3-|  |--3-|  |--3-|  |--3-|   
  Q    E  Q    E  Q    E  Q    E     Q    E  Q    E  Q    E  Q    E   
----------------------------------|----------------------------------|
----------------------------------|----------------------------------|
----------------------------------|----------------------------------|
--3----3-------3--1----1--1----1--|--3----3-------3--6----6--4----4--|


  |--3-|  |--3-|  |--3-|  |--3-|     |--3-|  |--3-|  |--3-|  |--3-|   
  Q    E  Q    E  Q    E  Q    E     Q    E  Q    E  Q    E  Q    E   
----------------------------------|----------------------------------|
----------------------------------|----------------------------------|
----------------------------------|----------------------------------|
--3----3-------3--1----1--1----1--|--3----3-------3--6----6--4----4--|


  |--3-|  |--3-|  |--3-|  |--3-|     |--3-|  |--3-|  |--3-|  |--3-|   
  Q    E  Q    E  Q    E  Q    E     Q    E  Q    E  Q    E  Q    E   
----------------------------------|----------------------------------|
----------------------------------|----------------------------------|
----------------------------------|----------------------------------|
--3----3-------3--1----1--1----1--|--3----3-------3--6----6--4----4--|


  |--3-|  |--3-|  |--3-|  |--3-|     |--3-|  |--3-|  |--3-|  |--3-|   
  Q    E  Q    E  Q    E  Q    E     Q    E  Q    E  Q    E  Q    E   
----------------------------------|----------------------------------|
----------------------------------|----------------------------------|
----------------------------------|----------------------------------|
--3----3-------3--1----1--1----1--|--3----3-------3--6----6--4----4--|


  |--3-|  |--3-|  |--3-|  |--3-|     |--3-|  |--3-|  |--3-|  |--3-|   
  Q    E  Q    E  Q    E  Q    E     Q    E  Q    E  Q    E  Q    E   
----------------------------------|----------------------------------|
----------------------------------|----------------------------------|
----------------------------------|----------------------------------|
--6----6-------6--4----4--4----4--|--6----6-------6--9----9--7----7--|


  |--3-|  |--3-|  |--3-|  |--3-|     |--3-|  |--3-|  |--3-|  |--3-|   
  Q    E  Q    E  Q    E  Q    E     Q    E  Q    E  Q    E  Q    E   
----------------------------------|----------------------------------|
----------------------------------|----------------------------------|
----------------------------------|----------------------------------|
--6----6-------6--4----4--4----4--|--6----6-------6--9----9--7----7--|


  |--3-|  |--3-|  |--3-|  |--3-|     |--3-|  |--3-|  |--3-|  |--3-|   
  Q    E  Q    E  Q    E  Q    E     Q    E  Q    E  Q    E  Q    E   
----------------------------------|----------------------------------|
----------------------------------|----------------------------------|
----------------------------------|----------------------------------|
--6----6-------6--4----4--4----4--|--6----6-------6--9----9--7----7--|


  |--3-|  |--3-|  |--3-|  |--3-|     |--3-|  |--3-|  |--3-|  |--3-|   
  Q    E  Q    E  Q    E  Q    E     Q    E  Q    E  Q    E  Q    E   
----------------------------------|----------------------------------|
----------------------------------|----------------------------------|
----------------------------------|----------------------------------|
--6----6-------6--4----4--4----4--|--6----6-------6--9----9--7----7--|


  |--3-|  |--3-|  |--3-|  |--3-|                          
  Q    E  Q    E  Q    E  Q    E     Q    Q    Q    Q     
----------------------------------|----------------------|
----------------------------------|----------------------|
----------------------------------|----------------------|
--3----3--3----3--2----2--3----3--|--2----5----3----3----|


  |--3-|  |--3-|  |--3-|  |--3-|                          
  Q    E  Q    E  Q    E  Q    E     Q    Q    Q    Q     
----------------------------------|----------------------|
----------------------------------|----------------------|
----------------------------------|----------------------|
--2----2--2----2--1----1--2----2--|--1----4----1----1----|


  Q    Q    Q    Q       Q    Q    Q    Q       Q    Q      S  E.  Q     
----------------------|----------------------|--------------------------|
----------------------|----------------------|--------------------------|
----------------------|----------------------|--------------------------|
--1----5----3----6----|--1----5----3----6----|--5----5s----(1)-----5----|


                |--3--|                                   
  Q      S  E.  E  E  E  Q       Q    Q      S  E.  Q     
------------------------------|--------------------------|
------------------------------|--------------------------|
------------------------------|--------------------------|
--5s----(1)-----5--5--5--5----|--6----6s----(2)-----6----|


                |--3--|  |--3--|     |--3--|  |--3--|  |--3--|  |--3--|   
  Q      S  E.  E  E  E  E  E  E     E  E  E  E  E  E  E  E  E  E  E  E   
----------------------------------|--------------------------------------|
----------------------------------|--------------------------------------|
----------------------------------|--------------------------------------|
--6s----(2)-----6--6--6--6--6--6--|--7--7--7--7--7--7--8--8--8--8--8--8--|


  |--3--|  |--3--|   |---3---|   |---3---|                           
  E  E  E  E  E  E   E   E   E   E   E   E      E.   S H.            
--------------------------------------------|-----------------------|
--------------------------------------------|-----------------------|
--------------------------------------------|-----------------------|
--9--9--9--9--9--9--10--10--10--11--11--11--|--12s---1-0------------|


  W                   Q    H.                             
-------------------|--------------------|---------------||
-------------------|--------------------|---------------||
-------------------|--------------------|---------------||
--0----------------|--L-----------------|---------------||
Login or Register to remove this ad.

4 comments on Chrono Trigger Medley

wow that must've taken a long

wow that must've taken a long time to tab out.
gj! thanks for making it!

TRULY EPIC O_O

5

TRULY EPIC O_O

I'm glad you tabbed this! You

5

I'm glad you tabbed this! You should post your video that goes along with it!

Anyone who have voted for

5

Anyone who have voted for less than 5 stars doesnt know what is chrono trigger