Ads

Manoria Cathedral (Chrono Trigger) Guitar Tab

Submitted: Aug 31, 2008 by TheDoomOfAllFires (Last updated: Dec 04, 2010)

5
Average: 5 (6 votes)
Download | Listen
Game: Chrono Trigger
Composer(s): Nobuo Uematsu, Yasunori Mitsuda, Noriko Matsueda
Style: Arrangement, Fingerstyle
Series: Chrono

AutoScroll: Slow | Medium | Fast
Chrono Trigger - Cathedral
Arranged & tabbed by TheDoomOfAllFires, 8/28/2008

Bpm = 120
Drop D tuning
3/4


  E  E  E  E  E  E   E  E  E  E  E  E   E  E  E  E  E  E   

e|------0-----------|------0-----------|------0-----2-----|
B|0-----------0-----|------------------|0--------------0--|
G|---0--------------|2-----------2--0--|---0--------------|
D|---------2-----4--|---4-----4--------|---------2--------|
A|------------------|------------------|------------------|
D|2-----------------|2-----------------|5-----------------|


  E  E  E  E  E  E   E  E  E  E  E  E

e|3-----2-----0-----|------0-----------|
B|------------------|3-----------0-----|
G|---0-----------0--|---2-----------0--|
D|---------4--------|---------4--------|
A|3-----------------|2-----------------|
E|------------------|------------------|


  E  E  E  E  E  E   E  E  E  E  E  E   E  E  E  E  E  E   H.

e|------0-----------|------------------|------------------|------------------|
B|3-----------0-----|---0--------------|------------------|------------------|
G|---------0--------|2-----0-----2--0--|---------0--------|------------------|
D|---2-----------2--|---------2-----2--|4-----0-----4--0--|------------------|
A|0-----------------|3-----------------|---0--------------|------------------|
D|------------------|------------------|0-----------------|2-----------------|
Login or Register to remove this ad.

2 comments on Manoria Cathedral

Surprised I missed this one,

5

Surprised I missed this one, really cool sounding!

Haha, this is one of the

Haha, this is one of the first arrangements I ever made, back in 2008.
Phew, I feel old !