Manoria Cathedral (Chrono Trigger) Guitar Tab

Submitted: Oct 03, 2007 by Stamen47 (Last updated: Dec 04, 2010)

5
Average: 5 (4 votes)
Download | Listen
Game: Chrono Trigger
Composer(s): Nobuo Uematsu, Yasunori Mitsuda, Noriko Matsueda
Style: Arrangement, Fingerstyle
Series: Chrono

AutoScroll: Slow | Medium | Fast
Gtr I (E A D G B E)

    Q=100
    Ebm            Fmadd11           Gb6                 Bmaj7
   3/4
    Gtr I
    E E  E E E E    E E  E  E E  E    E  E  E  E  E  E    E  E  E  E  E E
||--6---11-------|------11---------|-------11----13----|-14----13----11---|
||o---7------9---|-11---------9----|-11----------------|--0---------------|
||---------------|----8------------|----11-------------|------------------|
||-------------8-|--------------11-|--9-------11----13-|----13----11------|
||o-6------8-----|--9------11------|-------------------|-11-------------9-|
||---------------|-----------------|-------------------|------------------|


  Bbm7           Emaj7add9       B6            Bbsus4  Bb
  E E  E E E E   E E  E  E E E   E E E E E E   E E E E E E
|-9---11---6---|-9---11----6---|-4---2---4---|-1------------||-|
|-9------------|-7-------------|-0-----------|-4-----------o||-|
|------------6-|---------------|-----------4-|--------------||-|
|---8----------|---9---------4-|-2-----------|---3-4-3-6----||-|
|-8------------|-7------11-----|---2---------|-----------8-o||-|
|--------6-----|---------------|-------0-----|--------------||-|



E - 8th note
Login or Register to remove this ad.

2 comments on Manoria Cathedral

I love this game, i love

5

I love this game, i love this music, i love this tab !
Thanks dude !

Absolutely love this tab, so

Absolutely love this tab, so fun to play. Thanks a lot!