Boss Battle 1 (Chrono Trigger) Bass Tab

Submitted: Dec 30, 2008 by auriplane (Last updated: Nov 01, 2009)

0
Download | Listen
Game: Chrono Trigger
Composer(s): Nobuo Uematsu, Yasunori Mitsuda, Noriko Matsueda
Style: Transcription
Series: Chrono

AutoScroll: Slow | Medium | Fast
                 Chrono Trigger - Boss Battle 1 BASS TAB
                          Song by Noriko Matsueda

                  Tabbed by auriplane ([email protected])


Five-string bass, standard tuning.  This song is in 6/8 time.


            Intro

         E.    E.     E.    S S S
      G |------------|------------|
      D |------------|------------|
      A |4-----------|------------|
      E |------5-----|0-----4-2-4-|
      B |------------|------------|

         E   S E   S  E   S E   S  E   S E   S  E   S E   S
      G |------------|------------|------------|------------|
      D |------------|------------|------------|------------|
      A |------------|------------|------------|------------|
      E |3---3-3---3-|3---3-3---3-|3---3-3---3-|3---3-3---3-|
      B |------------|------------|------------|------------|

            Part A

         E   S E   S  E   S E   S  E   S E   S  E   S S S S
    / G |------------|------------|------------|------------|
   |  D |------5-----|------------|------5-----|------------|
3x |  A |------------|------------|------------|------------|
   |  E |3---3-----3-|4---4-1---1-|3---3-----3-|4---4-0-1-2-|
    \ B |------------|------------|------------|------------|

         E   S E   S  E   S E   S  E   S E   S  E   S S S S
      G |------------|------------|------------|------------|
      D |------5-----|------------|------5-----|------------|
      A |------------|------------|------------|----------0-|
      E |3---3-----3-|4---4-1---1-|3---3-----3-|4---4-1-4---|
      B |------------|------------|------------|------------|

         E   S E   S  E   S E   S  E   S E   S  E   S S S S
    / G |------3-----|------------|------3-----|------------|
   |  D |------------|------------|------------|------------|
3x |  A |1---1-----1-|2---2-------|1---1-----1-|2---2-----0-|
   |  E |------------|------4---4-|------------|------3-4---|
    \ B |------------|------------|------------|------------|

         E   S E   S  E   S E   S  E   S E   S  E   S S S S
      G |------3-----|------------|------3-----|------------|
      D |------------|------------|------------|------------|
      A |1---1-----1-|2---2-------|1---1-----1-|2---2-1-0---|
      E |------------|------4---4-|------------|----------4-|
      B |------------|------------|------------|------------|

            Part B

         E   S S S S  E.    E   S  E.    E.     E.    E.   
      G |------------|------------|------------|------------|
      D |----------5-|------------|------------|------------|
      A |------3-5---|------------|------------|------------|
      E |3---3-------|4-----3---3-|4-----------|5-----3-----|
      B |------------|------------|------5-----|------------|

         E   S S S S  E.    E   S  E.    E.     E.    E.   
      G |------------|------------|------------|------------|
      D |----------4-|------------|------------|------------|
      A |------2-4---|------------|------------|------------|
      E |2---2-------|3-----2---2-|3-----------|4-----2-----|
      B |------------|------------|------4-----|------------|

         E.    E.     E.    E.     E.    E.     E.    E.   
      G |------------|------------|------------|------------|
      D |------------|------------|------------|------------|
      A |1-----0-----|------------|------------|------1-----|
      E |------------|4-----3-----|------3-----|1-----------|
      B |------------|------------|3-----------|------------|

         E.    E.           E.     E.           S S S E.   
      G |------------|------------|------------|------------|
      D |------------|------------|------------|------------|
      A |3-----3-----|------3-----|3-----------|3-3-3-3-----|
      E |------------|------------|------------|------------|
      B |------------|------------|------------|------------|

            Repeat back to Part A.
Login or Register to remove this ad.