Black Omen (Chrono Trigger) Bass Tab

Submitted: Sep 08, 2008 by auriplane (Last updated: Mar 09, 2011)

0
Download | Listen
Game: Chrono Trigger
Composer(s): Nobuo Uematsu, Yasunori Mitsuda, Noriko Matsueda
Style: Transcription
Series: Chrono

This song is also called Black Dream

AutoScroll: Slow | Medium | Fast
                Chrono Trigger - Black Dream BASS TAB
                  "Black Dream" by Yasunori Mitsuda

                Tabbed by auriplane ([email protected])

Okay, ths is my third game tab.  This one's one of my favorite
video game songs on bass :-)  I don't have too many comments,
except that it's kind of fun to jazz up / improvise the opening
riff.

Four-string bass, standard tuning.

(Rest for eleven measures)

G |----------------|
D |----------------|
A |----------------|
E |------------1---|

Repeat 4x:

G |----------------|----------------|----------------|----------------|
D |----------------|----------------|3h5p3-----------|--------3-------|
A |----------------|----------------|--------5---3---|----5-------5---|
E |3-----------3---|----------------|----------------|----------------|

G |----------------|----------------|----------------|----------------|
D |----------------|----------------|----------------|----------------|
A |----------------|----------------|----------------|----------------|
E |3-----------3---|----------------|----------------|----3---1-------|

Repeat 4x:

G |----------------|----------------|----------------|----------------|
D |----------------|----------------|----------------|----------------|
A |3---3---3---3---|3---3---3---3---|3---3---3---3---|3---3---3---3---|
E |----------------|----------------|----------------|----------------|

G |----------------|----------------|----------------|----------------|
D |1---1---1---1---|1---1---1---1---|1---1---1---1---|1---1---1---1---|
A |----------------|----------------|----------------|----------------|
E |----------------|----------------|----------------|----------------|

Not repeated:

G |----------------|----------------|----------------|----------------|
D |0---------------|----------------|----------------|----------------|
A |------------4---|--------3-------|----------------|----------------|
E |----------------|----------------|----------------|----------------|

G |----------------|----------------|----------------|----------------|
D |----------------|----------------|----------------|----------------|
A |3-----------2---|--------1-------|----------------|----------------|
E |----------------|----------------|----------------|----------------|

Repeat 4x:

G |----------------|----------------|----------------|----------------|
D |----------------|----------------|----------------|----------------|
A |----------------|6-------6-------|----------------|----------------|
E |5-------5---5---|------------5---|----5---5---3---|----3---3---3---|

Not repeated:

G |----------------|----------------|----------------|----------------|
D |----------------|----------------|----------------|----------------|
A |----------------|----------------|----------------|----------------|
E |5-----------6---|--------7-------|----------------|----------------|


That's it!  Easy huh :-)
Login or Register to remove this ad.

1 comment on Black Omen

how bout a guitar tab ?

how bout a guitar tab ?