Bike Chase (Chrono Trigger) Bass/Guitar Tab

Submitted: Nov 24, 2008 by auriplane (Last updated: Apr 05, 2010)

5
Average: 5 (2 votes)
Download | Listen
Game: Chrono Trigger
Composer(s): Nobuo Uematsu, Yasunori Mitsuda, Noriko Matsueda
Style: 2 or more instruments, Transcription
Series: Chrono

AutoScroll: Slow | Medium | Fast
                  Chrono Trigger - Bike Chase GUITAR & BASS TAB
                               Song by Nobuo Uematsu
  
                      Tabbed by auriplane ([email protected])

I've tabbed this in 2/4 time, and included rhythm markers.  
The bass part is the same notes as the old bass tab I uploaded,
but I updated it to be a little easier to play and to include
rhythm markers; also I included a four-string bass version at
the end, which is transposed an octave up.

I've laid out all the arpeggios across strings as much as possible
without making you stretch your left hand, so you can sweep pick
it.  I also marked notes as hammer-ons where it feels right, but
it'll probably sound more like the original if you pick every note.

The organ stuff is mostly down an octave to fit onto a guitar
neck, but the intro isn't transposed, so this way you don't have
to move up the neck after the intro.

Note: This is one of the songs in CT by Uematsu, not by Mitsuda.


                  FIRST GUITAR (FIRST ORGAN VOICE)

         E     S  E     S  E      S  E     S  E     E     
    / e |------------------------|------------------------|
   |  B |------------------------|------------14----12----|
   |  G |13----11h13----11h13----|11h13----11-------------|
   |  D |------------------------|------------------------|
   |  A |------------------------|------------------------|
   |  E |------------------------|------------------------|
2x |
   |     E     S  E     S  E      S  E     S  E     S  S  
   |  e |------------------------|------------------------|
   |  B |------------------------|------------------------|
   |  G |13----11h13----11h13----|11h13----11-------11h12-|
   |  D |------------------------|------------13----------|
   |  A |------------------------|------------------------|
    \ E |------------------------|------------------------|

         S  S  S  S  S  S  S  S   S  S  S  S  S  S  S  S  
    / e |------------------------|------------11----------|
   |  B |11-------11-------------|---------11----11-------|
   |  G |---11-------11----------|11----11----------11----|
   |  D |------13-------13----13-|---13----------------13-|
   |  A |------------------13----|------------------------|
   |  E |------------------------|------------------------|
2x |
   |     S  S  S  S  S  S  S  S   S  S  S  S  S  S  S  S  
   |  e |------------------------|------------------------|
   |  B |9--------9--------------|---------9-h12p9--------|
   |  G |---9--------9-----------|9-----9-----------9-----|
   |  D |------9--------9-----9--|---9-----------------9--|
   |  A |------------------11----|------------------------|
    \ E |------------------------|------------------------|

         T T T T T T T T T T T T  T T T T T T T T T T T T  
      e |------------------------|------------------------|
      B |11----------12----------|11----------9-----------|
      G |--11------11--13------13|--11------11--9-------9-|
      D |----13--13------14--14--|----13--13------11--11--|
      A |------13----------14----|------13----------11----|
      E |------------------------|------------------------|

         T T T T T T T T T T T T  T T T T T T T T T T T T  
      e |------------------------|------------------------|
      B |11----------12----------|14----------12----------|
      G |--11------11--13------13|--15------15--13------13|
      D |----13--13------14--14--|----16--16------14--14--|
      A |------13----------14----|------16----------14----|
      E |------------------------|------------------------|

         H  (bass solo)          (H)     
      e |------------------------|------------------------|
      B |11----------------------(11)---------------------|
      G |------------------------|------------------------|
      D |------------------------|------------------------|
      A |------------------------|------------------------|
      E |------------------------|------------------------|

        (H)                      (H)
      e |------------------------|------------------------|
      B (11)---------------------(11)---------------------|
      G |------------------------|------------------------|
      D |------------------------|------------------------|
      A |------------------------|------------------------|
      E |------------------------|------------------------|




                 SECOND GUITAR (SECOND ORGAN VOICE)

         E     S  E     S  E      S  E     S  E     E     
    / e |------------------------|------------------------|
   |  B |------------------------|------------------------|
   |  G |------------------------|------------13----11----|
   |  D |13----11h13----11h13----|11h13----11-------------|
   |  A |------------------------|------------------------|
   |  E |------------------------|------------------------|
2x |
   |     E     S  E     S  E      S  E     S  E     S  S  
   |  e |------------------------|------------------------|
   |  B |------------------------|------------------------|
   |  G |------------------------|------------------------|
   |  D |13----11h13----11h13----|11h13----11-------11h12-|
   |  A |------------------------|------------13----------|
    \ E |------------------------|------------------------|

         S  S  S  S  S  S  S  S   S  S  S  S  S  S  S  S  
    / e |------------------------|------------11----------|
   |  B |------------------------|7--------7--------------|
   |  G |8--------8--------------|------8--------8--------|
   |  D |---8--------8-----------|---8--------------8-----|
   |  A |------9--------9-----9--|---------------------9--|
   |  E |------------------11----|------------------------|
2x |
   |     S  S  S  S  S  S  S  S   S  S  S  S  S  S  S  S  
   |  e |------------------------|------------------------|
   |  B |------------------------|------------------------|
   |  G |6--------6--------------|---------6-h9-p6--------|
   |  D |---6--------6-----------|6-----6-----------6-----|
   |  A |------7--------7-----7--|---7-----------------7--|
    \ E |------------------9-----|------------------------|

         T T T T T T T T T T T T  T T T T T T T T T T T T  
      e |------------------------|------------------------|
      B |------------------------|------------------------|
      G |8-----------9-----------|8-----------6-----------|
      D |--8-------8---9-------9-|--8-------8---6-------6-|
      A |----9---9-------11--11--|----9---9-------7---7---|
      E |------11----------12----|------11----------9-----|

         T T T T T T T T T T T T  T T T T T T T T T T T T  
      e |------------------------|------------------------|
      B |------------------------|------------------------|
      G |8-----------9-----------|11----------9-----------|
      D |--8-------8---9-------9-|--11------11--9-------9-|
      A |----9---9-------11--11--|----13--13------11--11--|
      E |------11----------12----|------14----------12----|

         H  (bass solo)          (H)     
      e |------------------------|------------------------|
      B |------------------------|------------------------|
      G |8-----------------------(8)----------------------|
      D |------------------------|------------------------|
      A |------------------------|------------------------|
      E |------------------------|------------------------|

        (H)                      (H)
      e |------------------------|------------------------|
      B |------------------------|------------------------|
      G (8)----------------------(8)----------------------|
      D |------------------------|------------------------|
      A |------------------------|------------------------|
      E |------------------------|------------------------|



                    THIRD GUITAR (RHYTHM GUITAR)

         S  S  S  S  S  S  S  S   S  S  S  S  E     E     
    / e |------------------------|------------------------|
   |  B |------------------------|------------------------|
4x |  G |------------------------|------------------------|
   |  D |6--6--6--6--6--6--6--6--|6--6--6--6--------4-----|
   |  A |------------------------|------------6-----------|
    \ E |------------------------|------------------------|

         E.       S  S  S  S  S   S  S  S  E     S  S  S   
    / e |------------------------|------------------------|
   |  B |------------------------|------------------------|
   |  G |------------------------|------------------------|
   |  D |------------------------|------------------------|
   |  A |6--------6--6--6--6--6--|6--6--6--6-----6--6--6--|
   |  E |------------------------|------------------------|
2x |
   |     E.       S  S  S  S  S   S  S  S  E     S  S  S   
   |  e |------------------------|------------------------|
   |  B |------------------------|------------------------|
   |  G |------------------------|------------------------|
   |  D |------------------------|------------------------|
   |  A |4--------4--4--4--4--4--|4--4--4--4-----4--4--4--|
    \ E |------------------------|------------------------|
35s
         E     E     E     E      E     E     E     E      
      e |------------------------|------------------------|
      B |------------------------|------------------------|
      G |------------------------|------------------------|
      D |------------------------|------------------------|
      A |------6-----------7-----|------6-----------4-----|
      E |------------------------|------------------------|

         E     E     E     E      E     E     E     E    
      e |------------------------|------------------------|
      B |------------------------|------------------------|
      G |------------------------|------------------------|
      D |------------------------|------------------------|
      A |------6-----------7-----|------9-----------7-----|
      E |------------------------|------------------------|

         E.       E     S  S  S   
    / e |------------------------|
   |  B |------------------------|
4x |  G |------------------------|
   |  D |------------------------|
   |  A |6--------6-----6--6--6--|
    \ E |------------------------|



                    BASS (FIVE-STRING VERSION)

         S S S S S S S S  S S S E   S S S
    / G |----------------|----------------|
   |  D |----------------|----------------|
4x |  A |----------------|----------------|
   |  E |4-4-4-4-4-4-4-4-|4-4-4-------2-3-|
    \ B |----------------|------4---4-----|

         Q.          E    E   S S S E   S  E.    E.    E    S S S E   S S S
    / G |----------------|----------------|----------------|----------------|
   |  D |----------------|4---4-3-4-------|----------------|----------------|
2x |  A |----------------|----------6-----|------------4---|7-6-7-4---------|
   |  E |------------6---|--------------6-|------4---------|------------4-7-|
    \ B |4---------------|----------------|2---------------|----------5-----|

         E   E   E   E    E   E   E   E    E   E   E   E    E   E   E   E
      G |----------------|----------------|----------------|----------------|
      D |----------------|----------------|----------------|----------------|
      A |6-------7-------|6-------4-------|6-------7-------|9-------7-------|
      E |----------------|----------------|----------------|----------------|
      B |----4-------5---|----4-------2---|----4-------5---|----7-------5---|

         E   S E   S S S  E   E   E   E    E   E   E   E    E   S E   S E
      G |----------------|----------------|----------------|----------------|
      D |----------------|----------------|----2---3---4---|5---------------|
      A |------6---4-6---|----2---3---4---|6---------------|----------6-4---|
      E |----6---------5-|6---------------|----------------|------6---------|
      B |4---------------|----------------|----------------|----4-----------|


                    BASS (FOUR-STRING VERSION)

        (This is transposed an octave up)

         S  S  S  S  S  S  S  S   S  S  S  E     S  S  S  
    / G |------------------------|------------------------|
4x |  D |------------------------|------------------------|
   |  A |11-11-11-11-11-11-11-11-|11-11-11----------9--10-|
    \ E |------------------------|---------11----11-------|

         Q.                E      E     S  S  S  E     S   
    / G |------------------------|11----11-10-11----------|
   |  D |------------------------|---------------13-------|
   |  A |------------------13----|---------------------13-|
   |  E |11----------------------|------------------------|
2x |
   |     E.       E.       E      S  S  S  E     S  S  S  
   |  G |------------------------|9--8--9-----------------|
   |  D |------------------11----|---------11----------9--|
   |  A |---------11-------------|------------------11----|
    \ E |9-----------------------|---------------12-------|

         E     E     E     E      E     E     E     E      
      G |------------------------|------------------------|
      D |13----------14----------|13----------11----------|
      A |------------------------|------------------------|
      E |------11----------12----|------11----------9-----|

         E     E     E     E      E     E     E     E    
      G |------------------------|------------------------|
      D |13----------14----------|16----------14----------|
      A |------------------------|------------------------|
      E |------11----------12----|------14----------12----|

         E     S  E     S  S  S   E     E     E     E      
      G |------------------------|------------------------|
      D |---------13----11-13----|------9-----10----11----|
      A |------13-------------12-|13----------------------|
      E |11----------------------|------------------------|

         E     E     E     E      E     S  E     S  E    
      G |------9-----10----11----|12----------------------|
      D |13----------------------|---------------13-11----|
      A |------------------------|---------13-------------|
      E |------------------------|------11----------------|


Login or Register to remove this ad.

3 comments on Bike Chase

yeah!

5

What the heck, other guitarists not trying this out? Well I suppose the fun in ones like this is in putting it all together.

Check it, auri!

http://www.youtube.com/watch?v=P-PdgkhMods

Hehe cool XD

Hehe cool XD

hey

5

I think I forgot to say, thanks so much for tabbing it! It's awesome.