Login or Register to remove this ad.

Battle Theme 2 (Chrono Trigger) Guitar Tab

Submitted: Oct 03, 2007 by Sinergy

0
Download | Listen
Game: Chrono Trigger
Composer(s): Nobuo Uematsu, Yasunori Mitsuda, Noriko Matsueda
Style: Transcription
Series: Chrono

AutoScroll: Slow | Medium | Fast
“Battle 2” Chrono Trigger SNES

This is my first tab so please bear with me.

I found this song in the Chrono Trigger OSV, I don’t remember hearing it when
I played through the game, maybe its from the Japanese version?? Who knows..

Standard tuning

P=pull-off

e------------------------------------------
B----------------12--15--13—-12------------
G-9--11--12--14----14-----------14--12-14--
D------------------------------------------
A------------------------------------------
E------------------------------------------

e------------------------------------
B------------12----------------------
G-11—-12--14----14-12-11—12p11p9-----
D------------------------------------
A------------------------------------
E------------------------------------

e--------------------------------------------
B------------10---------------------12-12-10-
G-------9--9----11------------9--9-----------
D-10-12------------12---10-12----------------
A--------------------------------------------
E--------------------------------------------

e------------------------------------
B------------------------------------
G-9-11-12---11-12-14---12-14-11------
D------------------------------------
A------------------------------------
E------------------------------------

e----------------------15-15----------------------------17-17---
B-17-15-17-18-18-17-15-------------17-15-17-18-18-17-15---------
G---------------------------------------------------------------    X2
D---------------------------------------------------------------
A---------------------------------------------------------------
E---------------------------------------------------------------

This is the little bas line after that last bit
e----------------------------------------------------
B----------------------------------------------------
G----------------------------------------------------
D----------------------------------------------------
A---2---0-2----2-0-2-3-2-----2---0-2---2-0-2-0-------
E-0---2-----0------------3-0---2-----0---------3-2-0-

Well thats it,pretty simple stuff, repeat as many times you want...
send your questions,suggestions or hatemail to [email protected]
Login or Register to remove this ad.

2 comments on Battle Theme 2

i did a little research and

i did a little research and found out that this is actually an unreleased track ^.^ so anyway enjoy

txt.

Haha the text link goes to Archard's battle tab.