1000 A.D. (Chrono Trigger) Bass/Guitar Tab

Submitted: Sep 29, 2007 by Calebelijah (Last updated: Dec 04, 2010)

4.5
Average: 4.5 (8 votes)
Download | Listen
Game: Chrono Trigger
Composer(s): Nobuo Uematsu, Yasunori Mitsuda, Noriko Matsueda
Style: 2 or more instruments, Transcription
Series: Chrono

This song is also called Peaceful Days

Click here for a video example.

AutoScroll: Slow | Medium | Fast
Lead Guitar
                                Q     Q     E   E   E   E
E||-------|-------|-------||-------------------------------|
B||-------|-------|-------||---------16----17--16----------|
G||-------|-------|-------||*--16------------------18--16--|
D||-------|-------|-------||*------------------------------|
A||-------|-------|-------||-------------------------------|
E||-------|-------|-------||-------------------------------|

   Q.      E   H            Q     Q     E   E   E   E
------------------------|------------------------------|
--19--------------------|--------16----17--16----------|
----------18--18--------|--16------------------18--16--|
------------------------|------------------------------|
------------------------|------------------------------|
------------------------|------------------------------|

   H.            E   E      Q     E   E   Q     Q
----------------16--18--|--19----18--16--------------|
--19--------------------|----------------19----16----|
------------------------|----------------------------|
------------------------|----------------------------|
------------------------|----------------------------|
------------------------|----------------------------|

   Q     E   E   Q     Q        E   E   E   E   Q     E   E
--16------------------------|--------------------------------|
--------19--17--16----------|--------------16----------------|
----------------------18----|--16------16------18--------16--|
----------------------------|------20----------------18------|
----------------------------|--------------------------------|
----------------------------|--------------------------------|

   H         Q.      E      Q     E   E   Q     E   E
------------------------|--16--------16----------------|
--------------------19--|--------19------19--------17--|
--16--------18----------|----------------------18------|
------------------------|------------------------------|
------------------------|------------------------------|
------------------------|------------------------------|

   Q     E   E   Q     E   E      Q     E   E   Q     Q
------------------------------|----------------------------|
--17----16----------------16--|--17----16------------------|
------------18--17----18------|------------18--16----18----|
------------------------------|----------------------------|
------------------------------|----------------------------|
------------------------------|----------------------------|

   W
----------------------||
----------------------||
--16----------------*-||
--------------------*-||
----------------------||
----------------------||





Rhythm Guitar
     E  E  E  E  E  E   E  E     S S S H        E.  E     H        H
E||--7------------------------|--7---------------------|--0--------2--------|
B||--7--5--4-----9------------|--0---4-----------------|--0--------2--------|
G||--4--------6--9--8---------|----6---6--------L---1--|--------------------|
D||--------------------11--9--|--6---------------------|--2--------4--------|
A||--------------7------------|------------------------|--------------------|
E||---------------------------|------------------------|--------------------|

    E  E  E  E   E  E  E  E      E  E  E  E  E  E  E  E
|------------7---------------|------------9--------------|
|---------7---------------7--|---------9--------------7--|
|*-----8---------------8-----|------9--------------6-----|
|*--9---------------9--------|--11--------------8--------|
|---------------11-----------|---------------9-----------|
|----------------------------|---------------------------|

  E  E  E  E   E  E  E  E     E  E  E  E   E  E  E  E
-----------7---------------|-----------6--11--6--------|
--------7---------------7--|--------7------------7-----|
-----8---------------8-----|-----8------------------8--|
--9---------------9--------|--8------------------------|
--------------11-----------|---------------------------|
---------------------------|---------------------------|

  E  E  E  E  E  E  E  E      E   E   E   E  E  E  E  E
-----------4-----------6--|--------------12-----------7--|
--------4-----------7-----|----------12------------7-----|
-----4-----------8--------|------13-------------8--------|
--6-----------8-----------|--14--------------9-----------|
--------------------------|------------------------------|
--------------------------|------------------------------|

  E  E  E  E   E  E  E  E     E  E  E  E  E  E   E  E
-----------4------------9--|-----------7--9--7---------|
--------4------------9-----|--------7-----------11--7--|
-----4------------9--------|-----8---------------------|
--6-----------11-----------|--9------------------------|
---------------------------|---------------------------|
---------------------------|---------------------------|

   E   E   E   E   E   E  E   E      E  E   E   E   E  E   E  E
--------------12-----------------|-------------11--11--9---------|
----------12-----------------11--|---------12-------------13--9--|
------13------------------9------|------9------------------------|
--14------------------11---------|--11---------------------------|
------------------13-------------|-------------------------------|
---------------------------------|-------------------------------|

   E  E  E  E  E  E  E  E     E  E  E  E   E  E  E  E
------------9-----------7--|-----------7--11--7----------||
---------9-----------7-----|--------7------------7-------||
------9-----------8--------|-----8------------------8--*-||
--11-----------9-----------|--9------------------------*-||
---------------------------|-----------------------------||
---------------------------|-----------------------------||

Bass Tab

Bass
     W                   W                   W
G||-------------------|-------------------|-------------------|
D||-------------------|-------------------|-------------------|
A||-------------------|-------------------|-------------------|
E||-------------------|-------------------|-------------------|

    H        H           H        H           H        H
|---------------------|--------------------|--------------------|
|*--------------------|--------------------|--------------------|
|*--2-----------------|--4-----------------|--2-----------------|
|------------4--------|-----------2--------|-----------4--------|

  H        H           H        H           H        Q    Q
--------------------|--------------------|---------------------|
--------------------|--------------------|---------------------|
--6-----------------|-----------6--------|--7------------------|
-----------6--------|--4-----------------|-----------7----6----|

  H        H           W                   H        H
--------------------|-------------------|--------------------|
--------------------|-------------------|--------------------|
-----------4--------|-------------------|--------------------|
--4-----------------|--2----------------|--0--------2--------|

  Q    Q    H           H        H           W
---------------------|--------------------|---------------------||
---------------------|--------------------|-------------------*-||
--2----0-------------|--4-----------------|--2----------------*-||
------------4--------|-----------2--------|---------------------||

Duration Legend
---------------
W - whole
H - half
Q - quarter
E - 8th
S - 16th
T - 32nd
X - 64th
. - note dotted
|-n-|  - n-tuplets
Login or Register to remove this ad.

7 comments on 1000 A.D.

good stuff man keep up the

good stuff man keep up the good work

my guitar does not have

my guitar does not have enough bars for this one :(

Hm, there are guitars with

5

Hm, there are guitars with less than 19 frets?

not bad. Would Like to see a

3

not bad. Would Like to see a version of this that gives both harmony/melody to a solo guitarist.

Nice work as always!

5

Nice work as always!

The G16 of the lead for

The first G16 of the lead for measures 4 and 6 should be D16

Nice tab

I remember Auri mentioned

I remember Auri mentioned that a long time ago when I did a video for it, but I guess she never changed it.