Winlan (Breath of Fire) Guitar Tab

Submitted: Oct 21, 2007 by Kotex (Last updated: May 07, 2008)

5
Average: 5 (2 votes)
Download | Listen
Game: Breath of Fire
Composer(s): Yoko Shimomura, Mari Yamaguchi, Yasuaki Fujita, Minae Fujii, Tatsuya Nishimura
Style: 2 or more instruments, Transcription

AutoScroll: Slow | Medium | Fast
Breath of Fire 
Super SNES   (1994)
Tabbed by: Kotex	
Difficulty: Easy
10/15/07



Guitar I
     E  S S E  E  E   E   Q        Q     E.   S  Q.      E   
E||--4--6-7-6-----4--14--13----|--16----14---13---------16--|
B||------------7---------------|----------------14----------|
G||----------------------------|----------------------------|
D||----------------------------|----------------------------|
A||----------------------------|----------------------------|
E||----------------------------|----------------------------|


   E   E   E.  S  H            Q     E.   S  Q.      E   
--14--13--11---9-11--------|--16----14---13---------18--|
---------------------------|----------------14----------|
---------------------------|----------------------------|
---------------------------|----------------------------|
---------------------------|----------------------------|
---------------------------|----------------------------|


   E   E   E.   S  H            Q.      S  S  E   E   E   S  S  
--19--18--16---14-16--------|--21------19-18-16--14--14--16-18-|
----------------------------|----------------------------------|
----------------------------|----------------------------------|
----------------------------|----------------------------------|
----------------------------|----------------------------------|
----------------------------|----------------------------------|


   Q     E   E   E   E   E   E      W                   Q     E   E   H         
--19----------------------------|--------------------|-------------------------|
--------19----------21----------|--------------------|-------------------------|
------------20--21----------21--|--20----------------|--L----18--16--15--------|
------------------------21------|--------------------|-------------------------|
--------------------------------|--------------------|-------------------------|
--------------------------------|--------------------|-------------------------|


   Q     E.   S  Q.      E      E   E   E.  S  H         
--16----14---13---------16--|--14--13--11---9-11--------|
----------------14----------|---------------------------|
----------------------------|---------------------------|
----------------------------|---------------------------|
----------------------------|---------------------------|
----------------------------|---------------------------|


 


  Q     E.   S  Q.      E      E   E   E.   S  H         
--16----14---13---------18--|--19--18--16---14-16--------|
----------------14----------|----------------------------|
----------------------------|----------------------------|
----------------------------|----------------------------|
----------------------------|----------------------------|
----------------------------|----------------------------|


   Q.      S  S  E   E   E   S  S     Q     E   E   E   E   E   E   
--21------19-18-16--14--14--16-18-|--19----------------------------|
----------------------------------|--------19----------21----------|
----------------------------------|------------20--21----------21--|
----------------------------------|------------------------21------|
----------------------------------|--------------------------------|
----------------------------------|--------------------------------|


   W                   Q     E   E   H            Q     E.   S  Q.      E   
--------------------|-------------------------|--16----14---13---------16--|
--------------------|-------------------------|----------------14----------|
--20----------------|--L----18--16--15--------|----------------------------|
--------------------|-------------------------|----------------------------|
--------------------|-------------------------|----------------------------|
--------------------|-------------------------|----------------------------|


   E   E   E.  S  H            Q     E.   S  Q.      E   
--14--13--11---9-11--------|--16----14---13---------18--|
---------------------------|----------------14----------|
---------------------------|----------------------------|
---------------------------|----------------------------|
---------------------------|----------------------------|
---------------------------|----------------------------|


   E   E   E.   S  H            Q.      S  S  E   E   E   S  S  
--19--18--16---14-16--------|--21------19-18-16--14--14--16-18-|
----------------------------|----------------------------------|
----------------------------|----------------------------------|
----------------------------|----------------------------------|
----------------------------|----------------------------------|
----------------------------|----------------------------------|


   Q     E   E   E   E   E   E      W                 
--19----------------------------|--------------------|
--------19----------21----------|--------------------|
------------20--21----------21--|--20----------------|
------------------------21------|--------------------|
--------------------------------|--------------------|
--------------------------------|--------------------|


  Q     E   E   H          
-------------------------||
-------------------------||
--L----18--16--15--------||
-------------------------||
-------------------------||
-------------------------||



Guitar II
     Q    Q    H           E  E   E  E   E   E   E  E   
E||---------------------|-----4---9--------------9-----|
B||--6----7----6--------|--6--6---9---------11--11-----|
G||--6----8----6--------|--6--6--10-----11--11--11-----|
D||--6----8----6--------|--6------------11--11---------|
A||---------------------|----------------9-------------|
E||---------------------|------------------------------|


   E   E   E  E  Q     Q       E  E   E  E   E   E   E  E   
-----------9-----7----------|-----4---9--------------9-----|
-------9---9-----7-----9----|--6--6---9---------11--11-----|
--10--10--10-----8-----8----|--6--6--10-----11--11--11-----|
--11--11--------------10----|--6------------11--11---------|
--11------------------------|----------------9-------------|
----------------------------|------------------------------|


   E   E   E  E   Q     Q        H         H           H         H         
-----------------------------|----------------------|---------------------|
---0---0--11-----------------|----------------------|---------------------|
------11--11-----11----10----|--10--------11--------|--8---------9--------|
--13--13--13-----11----------|---9--------11--------|--9--------11--------|
--11-------------11----------|--11--------13--------|---------------------|
-----------------------------|----------------------|---------------------|


  W                   W                   E  E   E  E   E   E   E  E   
-------------------|-------------------|-----4---9--------------9-----|
-------------------|-------------------|--6--6---9---------11--11-----|
--8----------------|-------------------|--6--6--10-----11--11--11-----|
--9----------------|--8----------------|--6------------11--11---------|
-------------------|-------------------|----------------9-------------|
-------------------|-------------------|------------------------------|


   E   E   E  E  Q     Q       E  E   E  E   E   E   E  E   
-----------9-----7----------|-----4---9--------------9-----|
-------9---9-----7-----9----|--6--6---9---------11--11-----|
--10--10--10-----8-----8----|--6--6--10-----11--11--11-----|
--11--11--------------10----|--6------------11--11---------|
--11------------------------|----------------9-------------|
----------------------------|------------------------------|


   E   E   E  E   Q     Q        H         H           H         H         
-----------------------------|----------------------|---------------------|
---0---0--11-----------------|----------------------|---------------------|
------11--11-----11----10----|--10--------11--------|--8---------9--------|
--13--13--13-----11----------|---9--------11--------|--9--------11--------|
--11-------------11----------|--11--------13--------|---------------------|
-----------------------------|----------------------|---------------------|


  W                   W                   E  E   E  E   E   E   E  E   
-------------------|-------------------|-----4---9--------------9-----|
-------------------|-------------------|--6--6---9---------11--11-----|
--8----------------|-------------------|--6--6--10-----11--11--11-----|
--9----------------|--8----------------|--6------------11--11---------|
-------------------|-------------------|----------------9-------------|
-------------------|-------------------|------------------------------|


   E   E   E  E  Q     Q       E  E   E  E   E   E   E  E   
-----------9-----7----------|-----4---9--------------9-----|
-------9---9-----7-----9----|--6--6---9---------11--11-----|
--10--10--10-----8-----8----|--6--6--10-----11--11--11-----|
--11--11--------------10----|--6------------11--11---------|
--11------------------------|----------------9-------------|
----------------------------|------------------------------|


   E   E   E  E   Q     Q        H         H           H         H         
-----------------------------|----------------------|---------------------|
---0---0--11-----------------|----------------------|---------------------|
------11--11-----11----10----|--10--------11--------|--8---------9--------|
--13--13--13-----11----------|---9--------11--------|--9--------11--------|
--11-------------11----------|--11--------13--------|---------------------|
-----------------------------|----------------------|---------------------|


  W                   W                  
-------------------|-------------------||
-------------------|-------------------||
--8----------------|-------------------||
--9----------------|--8----------------||
-------------------|-------------------||
-------------------|-------------------||





Duration Legend
---------------
W - whole
H - half
Q - quarter
E - 8th
S - 16th
T - 32nd
X - 64th
. - note dotted
|-n-|  - n-tuplets
Login or Register to remove this ad.