Alan and Cerl Forever (Breath of Fire) Guitar Tab

Submitted: Oct 31, 2007 by ajrock2000 (Last updated: May 07, 2008)

4.666665
Average: 4.7 (3 votes)
Download | Listen
Game: Breath of Fire
Composer(s): Yoko Shimomura, Mari Yamaguchi, Yasuaki Fujita, Minae Fujii, Tatsuya Nishimura
Style: 2 or more instruments, Arrangement

This song is also called Tears

AutoScroll: Slow | Medium | Fast
Gtr I (E A D G B E) - 'Backup'
Gtr II (E A D G B E) - 'Lead'

  Q=180
 4/4
  Gtr I
  Q   Q  H       Q   Q  H       Q   Q  H       Q  Q  Q  Q
|--------------|--------------|--------------|--------------|
|--------0-----|--------0-----|--------------|-------0------|
|-----0--------|--------------|--------0-----|--------------|
|-2------------|-----4--------|-----2--------|----0-----0---|
|--------------|-5------------|-3------------|--------------|
|--------------|--------------|--------------|-3------------|
|
| Gtr II
| H.        Q    H.        Q    H.        Q    W
|-3---------7--|-2------------|-0---------3--|--------------|
|--------------|-----------3--|--------------|-3------------|
|--------------|--------------|--------------|--------------|
|--------------|--------------|--------------|--------------|
|--------------|--------------|--------------|--------------|
|--------------|--------------|--------------|--------------|


  Q  Q  Q  Q    Q  Q  Q  Q    Q  Q  Q  Q    Q  Q  Q  Q
|-------------|-------------|-------------|-------------|
|-------------|-------------|-------------|-------------|
|-------0-----|-------0-----|-------------|-------------|
|----2-----2--|----0-----0--|-------2-----|----1--4-----|
|-3-----------|-------------|-0--3-----3--|-2--------2--|
|-------------|-3-----------|-------------|-------------|
|
| Q  Q  Q  Q    H     H       H     Q  Q    W
|-------0--3--|-------------|-------7--5--|-2-----------|
|-1--3--------|-3-----0-----|-------------|-------------|
|-------------|-------------|-------------|-------------|
|-------------|-------------|-------------|-------------|
|-------------|-------------|-------------|-------------|
|-------------|-------------|-------------|-------------|


  Q   Q  H       Q   Q  H         Q  Q  H       Q  Q  H
|--------------|---------------|--------------|------------|
|--------0-----|--------0------|--------------|------------|
|-----0--------|-----0---------|--------2-----|-------0----|
|-2------------|-1-------------|--0--3--------|----2-------|
|--------------|---------------|--------------|-3----------|
|--------------|---------------|--------------|------------|
|
| H.        Q    H.         Q     H     Q  Q    H     H
|-3---------7--|-2---------10--|-10-----8--7--|-7-----3----|
|--------------|---------------|--------------|------------|
|--------------|---------------|--------------|------------|
|--------------|---------------|--------------|------------|
|--------------|---------------|--------------|------------|
|--------------|---------------|--------------|------------|


  Q   Q   Q   Q     Q   Q   Q  Q    Q  Q  Q  Q    Q  Q  Q     Q
|----------------|----------------|-------------|-0-----------------|
|----------------|----------------|-------0-----|-------0-----------|
|----------------|----------------|----0-----0--|----0--------0-----|
|---------2------|------1---4--1--|-2-----------|-------------------|
|-0---3-------3--|--2-------------|-------------|-------------------|
|----------------|----------------|-------------|-------------------|
|
|                                                       |-3-| |-3-|
| Q   Q   Q   Q     Q   H.          W             H     E E E E E E
|------------12--|-11-------------|-0-----------|-----------------8-|
|----------------|----------------|-------------|-------------5-8---|
|-9--11--12------|-----11---------|-------------|-----------5-------|
|----------------|----------------|-------------|---------5---------|
|----------------|----------------|-------------|-------7-----------|
|----------------|----------------|-------------|-------------------|


  Q  Q  H      Q   Q  H       Q   Q  H         Q  Q  Q  Q
|------------|--------------|----------------|-------------|
|-------0----|--------0-----|----------------|-------0-----|
|----0-------|-----0--------|--------0-------|-------------|
|-2----------|-1------------|-----2----------|----0-----0--|
|------------|--------------|-3--------------|-------------|
|------------|--------------|----------------|-3-----------|
|
| W            H.        Q    H.         Q     W
|-7----------|-7------------|-0----------3---|-------------|
|-8----------|-7---------3--|-1---------(1)--|-3-----------|
|-9----------|-7------------|----------------|-0-----------|
|------------|--------------|----------------|-------------|
|------------|--------------|----------------|-------------|
|------------|--------------|----------------|-------------|


  Q  Q  Q  Q    Q  Q  Q  Q    Q  Q  Q  Q    Q  Q  Q  Q
|-------------|-------------|-------------|-------------|
|-------------|-------------|-------------|-------------|
|-------0-----|-------0-----|-------------|-------------|
|----2-----2--|----0-----0--|-------2-----|----1--4--1--|
|-3-----------|-------------|-0--3-----3--|-2-----------|
|-------------|-3-----------|-------------|-------------|
|
| Q  Q  Q  Q    H     H       H     Q  Q    W
|-------0--3--|-------------|-------7--5--|-2-----------|
|-1--3--------|-3-----0-----|-1--------5--|-4-----------|
|-------------|-------------|-4-----7-----|-------------|
|-------------|-------------|-------------|-------------|
|-------------|-------------|-------------|-------------|
|-------------|-------------|-------------|-------------|


  Q   Q  H         Q  Q   H           Q  Q   H          Q  Q   H
|----------------|-----------------|------------------|--------------|
|--------0-------|--------0--------|------------------|--------------|
|-----0----------|----0------------|---------2--------|--------0-----|
|-2--------------|-1---------------|--0--3------------|----2---------|
|----------------|-----------------|------------------|-3------------|
|----------------|-----------------|------------------|--------------|
|
| H.         Q     H      Q    Q      H      Q    Q     H      H
|-7----------7---|-5------7---10---|-10------8----7---|-7------------|
|----------------|-----------------|------------------|--------8-----|
|-9---------(9)--|-8-----(8)--(8)--|--7-----(7)--(7)--|-5-----(5)----|
|----------------|-----------------|------------------|--------------|
|----------------|-----------------|------------------|--------------|
|----------------|-----------------|------------------|--------------|


  Q   Q    Q    Q      Q  Q   Q   Q    Q  Q  Q  Q     Q   Q  Q  Q
|-------------------|----------------|-------------|--0-------------||
|-------------------|----------------|-------0-----|---------0-----o||
|-------------------|----------------|----0-----0--|------0-----0---||
|----------2--------|-----1---4---1--|-2-----------|----------------||
|-0---3---------3---|--2-------------|-------------|---------------o||
|-------------------|----------------|-------------|----------------||
|
| Q   Q    Q    Q      H      H        W             +W
|--------------12---|-11-------------|-0-----------|-(0)------------||
|-5---7----8--------|----------------|-------------|---------------o||
|-------------------|--------11------|-------------|----------------||
|-7--(7)--(7)--(7)--|--9-----(9)-----|-------------|----------------||
|-------------------|----------------|-------------|---------------o||
|-------------------|----------------|-------------|----------------||
Login or Register to remove this ad.

7 comments on Alan and Cerl Forever

nice song, even I dont know

nice song, even I dont know the game...

It's possible to play the

It's possible to play the two guitar on only one??

hey neohunter, what is your

hey neohunter, what is your email address? I have a single guitar version, but I had to chop some notes out to make it playable...I can send it to you if you want. Its in powertab format...

Actually I looked at this

Actually I looked at this tab yesterday and couldn't help but think it would be easy to play on solo guitar, so I put it into guitar pro and I almost completed it. I'll make the finishing touches and post it.

Some of the fingerings are

Some of the fingerings are pretty hard but it's definitely playable.

BPM = 180

     Q    Q    Q    Q       Q    Q    Q    Q       Q    Q    Q    Q     
E||--3--------------7----|--2-------------------|--0--------------3----|
B||------------0---------|------------0----3----|----------------------|
G||-------0--------------|----------------------|------------0---------|
D||--2-------------------|-------4--------------|-------2--------------|
A||----------------------|--5-------------------|--3-------------------|
E||----------------------|----------------------|----------------------|


  Q    Q    Q    Q       Q    Q    Q    Q       Q    Q    Q    Q     
----------------------|------------0----3----|----------------------|
--3---------0---------|--1----3--------------|--3---------0---------|
----------------------|------------0---------|------------0---------|
-------0---------0----|-------2---------2----|-------0---------0----|
----------------------|--3-------------------|----------------------|
--3-------------------|----------------------|--3-------------------|


  Q    Q    Q    Q       Q    Q    Q    Q       Q    Q    Q    Q     
------------7----5----|--2-------------------|--3--------------7----|
----------------------|----------------------|------------0---------|
----------------------|-------1----4---------|-------0--------------|
--0----3----7----3----|--2--------------2----|--2-------------------|
----------------------|----------------------|----------------------|
----------------------|----------------------|----------------------|


  Q    Q    Q     Q        Q    Q    Q    Q       Q    Q    H         
--2--------------10----|--10---------8----7----|--7---------3--------|
------------0----------|-----------------------|---------------------|
-------0---------------|-----------------------|------------0--------|
--1--------------------|-------------7---------|-------2-------------|
-----------------------|--------8--------------|--3------------------|
-----------------------|--10-------------------|---------------------|


   Q     Q     Q     Q        Q     Q    Q     Q       Q    Q    Q    Q     
--------------------12----|--11---------------------|--0-------------------|
--------------------------|-------------------------|------------0---------|
---9----11----12----------|--------11---------------|-------0---------0----|
--------------------------|--------------9----------|--2-------------------|
---------8----12----------|--------11---------11----|----------------------|
--10-----------------8----|--12---------------------|----------------------|


            |--3--|  |--3--|                                                
  Q    Q    E  E  E  E  E  E     Q    Q    H           Q    Q    Q    Q     
--0------------------------8--|--7------------------|--7-------------------|
------------0--------5--8-----|--8---------0--------|--7---------0----3----|
-------0----------5-----------|--9----0-------------|--7----0--------------|
---------------5--------------|---------------------|----------------------|
------------7-----------------|--7------------------|--6-------------------|
------------------------------|---------------------|----------------------|


  Q    Q    Q    Q       Q    Q    Q    Q       Q    Q    Q    Q     
--0--------------3----|----------------------|------------0----3----|
--1-------------------|--3---------0---------|--1----3--------------|
------------0---------|--0-------------------|------------0---------|
-------2--------------|-------0---------0----|-------2---------2----|
--3-------------------|----------------------|--3-------------------|
----------------------|--3-------------------|----------------------|


  Q    Q    Q    Q       Q    Q    Q    Q       Q    Q    Q    Q     
----------------------|------------7----5----|--2-------------------|
--3---------0---------|--1--------------5----|--4-------------------|
------------0---------|--4---------7---------|----------------------|
-------0---------0----|----------------------|-------1----4----1----|
----------------------|--0----3----7----3----|--2-------------------|
--3-------------------|----------------------|----------------------|


  Q    Q    Q    Q       Q    Q    Q     Q        Q    Q    Q    Q     
--7--------------7----|--5---------7----10----|--10---------8----7----|
------------0---------|------------0----------|-----------------------|
--9----0--------------|--8----0---------------|---7-------------------|
----------------------|-----------------------|---0---------7---------|
--7-------------------|--6--------------------|--------8--------------|
----------------------|-----------------------|-----------------------|


  Q    Q    H           Q    Q    Q     Q        Q     Q    Q     Q     
--7------------------|-----------------12----|--11---------------------|
------------8--------|--5----7----8----------|-------------------------|
--5---------0--------|-----------------------|-------------------------|
-------2-------------|--7--------------------|-------------------------|
--3------------------|--0---------7----------|--------------9----------|
---------------------|-------8----------8----|---7----11---------11----|


  Q    Q    Q    Q       Q    Q    Q    Q       
--0-------------------|--L--------------------||
------------0---------|------------0----------||
-------0---------0----|-------0---------0----*||
--2-------------------|----------------------*||
----------------------|-----------------------||
----------------------|-----------------------||

sweet, its pretty much the

sweet, its pretty much the same as I had...thanks archard

The ZIP file now includes

The ZIP file now includes both the solo and duet versions.