Action Stage (Super Ninja Boy) Bass Tab

Submitted: Jun 25, 2009 by auriplane

0
Download | Listen
Game: Super Ninja Boy
Composer(s): Eiji Miyabi
Style: Transcription

AutoScroll: Slow | Medium | Fast
                      Super Ninja Boy - Action Stage BASS TAB
                               Song by Eiji Miyabi

                      Tabbed by auriplane ([email protected])


Four-string bass, standard tuning.

    Part A

G |5---5-5-5---5-5-5---5-5-5---5-5-|5---5-5-5---5-5-5---5-5-5---5-4-|
D |--------------------------------|--------------------------------|
A |--------------------------------|--------------------------------|
E |--------------------------------|--------------------------------|

G |2---2-2-2---2-2-2---2-2-2---2-2-|2---2-2-2---2-2-2---2-2-2---2---|
D |--------------------------------|------------------------------5-|
A |--------------------------------|--------------------------------|
E |--------------------------------|--------------------------------|

G |--------------------------------|--------------------------------|
D |3---3-3-3---3-3-3---3-3-3---3-3-|3---3-3-3---3-3-3---3-3-3---3-4-|
A |--------------------------------|--------------------------------|
E |--------------------------------|--------------------------------|

G |--------------------------------|----------------------------2-4-|
D |5---5-5-5---5-5-5---5-5-5---5-5-|5---5-5-5---5-5-5---5-5-5-------|
A |--------------------------------|--------------------------------|
E |--------------------------------|--------------------------------|

    Part B

G |5---5-5-5---5-5-3---3-3-3---3-3-|2---2-2-2---2-2-1---1-1-1---0-0-|
D |--------------------------------|--------------------------------|
A |--------------------------------|--------------------------------|
E |--------------------------------|--------------------------------|

G |5---5-5-5---5-5-3---3-3-3---3-3-|2---2-2-2---2-2-1---1-1-1---0-0-|
D |--------------------------------|--------------------------------|
A |--------------------------------|--------------------------------|
E |--------------------------------|--------------------------------|

G |--------------------------------|0---0-0-0---0-0-0---0-0-0---0-0-|
D |3---3-3-3---3-3-3---3-3-3---3-3-|--------------------------------|
A |--------------------------------|--------------------------------|
E |--------------------------------|--------------------------------|

G |1---1-1-1---1-1-1---1-1-1---1-1-|3---3-3-3---3-3-3---3-3-3---3-3-|
D |--------------------------------|--------------------------------|
A |--------------------------------|--------------------------------|
E |--------------------------------|--------------------------------|

    Repeat back to Part A.
Login or Register to remove this ad.