Ads

Upper Brinstar (Super Metroid) Guitar Tab

Submitted: Dec 18, 2014 by JordanVS (Last updated: Dec 23, 2014)

5
Average: 5 (3 votes)
Download | Listen
Game: Super Metroid
Composer(s): Kenji Yamamoto, Minako Hamano
Style: Arrangement, Fingerstyle
Series: Metroid

This song is also called Green Brinstar / Plant Overgrowth Area / The Jungle Floor

AutoScroll: Slow | Medium | Fast
Upper Brinstar                                            
Green Brinstar / Plant Overgrowth Area / The Jungle Floor 
Super Metroid
Kenji Yamamoto & Minako Hamano   
JordanVS                                                                                    Super Metroid

*Capo on the 3rd fret
-4/4 
-Tempo : 125

The rhythm of the bass line in the beggining isn't exactly right.
I wrote it like that to make it easier to read.  


     E  E  E  E  E  E  E  E     E  E  E  E  E  E  E  E     E  E  E  E  E  E  E  E   
E||-----0-----0--------------|-----0-----0-----0--3--5--|-----0-----0--------------|
B||--------3-----3--1--0--1--|--------3-----3-----------|--------3-----3--1--0--1--|
G||--2-----------------------|--2-----------------------|--2-----------------------|
D||--------------------------|--------------------------|--------------------------|
A||--------------------------|--------------------------|--------------------------|
E||--------------------------|--------------------------|--------------------------|


			   *Segno
                                                        ^                        
  E  E  E  E  E  E  E  E     E  E  E  E  E  E  E  E     E  E  E  E  E  E  E  E   
-----0-----0-----0--3--5--|-----0-----0--------------|--0--0-----0-----0--3--5--|
--------3-----3-----------|--------3-----3--1--0--1--|--1-----3-----3-----------|
--2-----------------------|--2-----------------------|--2-----------L-----------|
--------------------------|--2-----------------------|--2-----------L-----------|
--------------------------|--0--0-----0--------------|--------------------------|
--------------------------|--------3-----------------|--------------------------|


  E  E  E  E  E  E  E  E     E  E  E  E  E  E  E  E     E  E  E  E  E  E  E  E   
-----0-----0--------------|-----0-----0-----0--3--5--|-----0-----0--------------|
--0-----3-----3--1--0--1--|--------3-----3-----------|--------3-----3--1--0--1--|
--0-----------L-----------|--4-----------L-----------|--2-----------------------|
--------------------------|--5-----------L-----------|--2-----------------------|
--0--0-----0--------------|--------------------------|--0--0-----0--------------|
--------3-----------------|--------------------------|--------3-----------------|


  ^                                                                              
  E  E  E  E  E  E  E  E     E  E  E  E  E  E  E  E     E  E  E  E  E  E  E  E   
--0--0-----0-----0--3--5--|--0--0-----0--------------|--3-----------L-----3--5--|
--1-----3-----3-----------|--0-----3-----3--1--0--1--|-----5--3--5--3--5--------|
--2-----------L-----------|--0-----------L-----------|--4-----------L-----------|
--2-----------L-----------|--------------------------|--------------------------|
--------------------------|--0--0-----0--------------|--------------------------|
--------------------------|--------3-----------------|--------------------------|


  ^              >  >  >     >     >     >  >           ^              >  >  >   
  E  E  E  E  E  E  E  E     E  E  E  E  E  E  E  E     E  E  E  E  E  E  E  E   
--0-----------L-----0-----|--------3--------0--------|--0--L--------------0-----|
--1-----------L-----------|--3-----------3-----------|--1--L--------------------|
--2-----------L--2-----2--|-----------2-----------2--|--2--L-----------2-----2--|
--------------2-----------|-----2--------------2-----|--------------------------|
--0--0-----0--------------|--------------------------|--0--0-----0--------------|
--------3-----------------|--------------------------|--------3-----------------|


  >     >     >  >           ^              >  >  >     >     >     >  >         
  E  E  E  E  E  E  E  E     E  E  E  E  E  E  E  E     E  E  E  E  E  E  E  E   
--------3-----7--3--------|--------------------0-----|--------3--------0--------|
--3-----------------------|--0--L--------------------|--3-----------3-----------|
-----------0--------------|--0--L-----------2-----2--|-----------2-----------2--|
-----0-----------------2--|--0--L--------------------|-----2--------------2-----|
--------------------0-----|--0--0-----0--------------|--------------------------|
--------------------------|--------3-----------------|--------------------------|


  ^              >  >  >     >     >     >  >                                       
  E  E  E  E  E  E  E  E     E  E  E  E  E  E  E  E       E  E  E  E  E  E  E  S S  
--0--L--------------0-----|--------3-----7--3--------||----------------------------|
--1--L-----------------1--|--3-----------------------||----------------------------|
--2--L-----------2--------|-----------0--------------||*--2-----------------2------|
--------------------------|-----0-----------------2--||*--2------------------------|
--0--0-----0--------------|--------------------0-----||---0--0-----0-----0-----0-0-|
--------3-----------------|--------------------------||---------3------------------|


  ^                           ^                           ^                         
  E  E  E  E  E  E  E  S S    E  E  E  E  E  E  E  S S    E  E  E  E  E  E  E  S S  
---------------------------|---------------------------|---------------------------|
--0------------------------|--3------------------------|--1------------------------|
--0-----------------2------|--4-----------------0------|--2------------------------|
--0------------------------|--3------------------------|--2------------------------|
--0--0-----------------0-0-|--0--0-----0-----0-----0-0-|--0--0-----------------0-0-|
-----------0-----3---------|--------3------------------|-----------0-----3---------|

							1.
                              ^                           ^                         
  E  E  E  E  E  E  E  S S    E  E  E  E  E  E  E  S S    E  E  E  E  E  E  E  S S  
---------------------------|---------------------------|--0------------------------|
---------------------------|--0------------------------|--0------------------------|
--2-----------------2------|--0-----------------2------|--2------------------------|
--2------------------------|--0------------------------|---------------------------|
--0--0-----0-----0-----0-0-|--0--0-----------------0-0-|--0--0-----0-----0-----0-0-|
--------3------------------|-----------0-----3---------|--------3------------------|

			       2.
                                 ^                                                     
  E  E  E  E  E  E  E  S S       E  E  E  E  E  E  E  S S    E  E  E  E  E  E  E  S S  
--L-------------------------||--12------------------------|--L------------------------|
--L-------------------------||----------------------------|---------------------------|
--L------------------------*||---9------------------------|--L------------------------|
---------------------------*||---9------------------------|--L------------------------|
--0--0-----0-----0-----0-0--||----------------------------|---------------------------|
----------------------------||---0--0-----0-----0-----0-0-|--0--0-----0-----0-----0-0-|


    E  E  E  E  E  E  E  E     E  E  E  E  E  E  E  E     Q.     E  Q    E  E   
|---------------------------|--------------------------|-----------------------|
|---------------------------|--------------------------|--0--------------------|
|*--------------------------|--------------------------|--0--------------------|
|*--2--5--4--2--5--4--2--5--|--2--5--4--2--5--4--2--5--|-----------------------|
|---------------------------|--------------------------|-----------------------|
|---0--------0--------0-----|--0--------0--------0-----|--0------0-------0-----|


  Q.     E  Q    E  E     E  E  E  E  E  E  E  E     E  E  E  E  E  E  E  E   
-----------------------|--------------------------|--------------------------|
-----------------------|--------------------------|--------------------------|
--0--------------------|-----1--0-----1--0-----1--|-----1--0-----1--0-----1--|
--2--------------------|--3--------3--------3-----|--3--------3--------3-----|
-----------------------|--------------------------|--------------------------|
--0------0-------0-----|--1--------1--------1-----|--1--------1--------1-----|


  Q.     E  Q    E  E     Q.     E  Q    E  E       E  E  E  E  E  E  E  E   
-----------------------|------------------------||--------------------------|
--1--------------------|------------------------||--------------------------|
--1--------------------|--1--------------------*||--0--3--2--0--3--2--0--3--|
-----------------------|--3--------------------*||--0-----------------------|
-----------------------|------------------------||--------------------------|
--1------1-------1-----|--1------1-------1------||--3--------3--------3-----|


  E  E  E  E  E  E  E  E     E  E  E  E  E  E  E  E     E  E  E  E  E  E  E  E   
--------------------------|--------------------------|--------------------------|
--------------------------|-----1--0-----1--0-----1--|-----0--1-----0--1-----1--|
--0--3--2--0--3--2--0--3--|--2--------2--------2-----|--2--------2--------2-----|
--L-----------------------|--2-----------------------|--L-----------------------|
--------------------------|--0--------0--------0-----|--0--------0--------0-----|
--3--------3--------3-----|--------------------------|--------------------------|

											    *Da Segno
  Q    E  E  Q    E  E     Q    E  E  Q    E  E     Q    E  E  Q    E  E     Q    E  E  Q    E  E   
--0---------------------|------------------------|--0----------0----3-----|--7---------------7-----|
-------0----------0-----|------------------0-----|-------0----------------|-------------8----------|
-------------0----------|--2----0-----2----------|------------------------|-------9----------------|
--2---------------L-----|------------------------|------------------------|------------------------|
------------------------|------------------------|------------------------|------------------------|
--0-------0-------0-----|--0-------0-------0-----|--0-------0-------0-----|--0-------0-------0-----|


  E  E  E  E  H          
-----------------------||
-----------------------||
--2--2--0--2-----------||
--2--2--0--2-----------||
--0--0-----0-----------||
--------3--------------||




Duration Legend
---------------
W - whole
H - half
Q - quarter
E - 8th
S - 16th
T - 32nd
X - 64th
. - note dotted
|-n-|  - n-tuplets


Tablature Legend
----------------
L - tied note
^ - brush up
v - brush down
Login or Register to remove this ad.

1 comment on Upper Brinstar

I love how it sound compared

5

I love how it sound compared to the original :)