Norfair Ancient Ruins (Super Metroid) Guitar Tab

Submitted: May 22, 2019 by DawnOfHumansEnd (Last updated: Jun 08, 2019)

0
Download | No audio :(
Game: Super Metroid
Composer(s): Kenji Yamamoto, Minako Hamano
Style: Arrangement, Transcription
Series: Metroid

AutoScroll: Slow | Medium | Fast
"The March of The Damned"

Norfair Ancient Ruins
SuperMetroid OST

Arranged by The Dark Stranger

This is something I play on harp guitar but this tab is modified for 6 string guitar.
The model for this tab is the SNES sound rip from Norfair. The ticking throughout the song is
accomplished by string pinching and making contact with the backs of nails. May take a little practice to get that part right since theres no way to "Tab" the hits. 


                              THE FIRST LAMENT 
                              (TO KNOW DESPAIR)
e|----------------------|
B|----------------------|
G|----------------------|
D|---2----3------2---2--|
A|-1/2----1----3/2---2--|
E|---0----1------0---1--|

             The SECOND LAMENT : TO BE THRUST INTO THE BOWELS OF TORMENT
             (Forced Inculcation At Birth: Parents do not love children)
e|----------------------------------------|
B|------------------3---------------------|
G|-4--2--4--2--4-5-----5---5--4-----5-----|
D|-4-----4-----5----5----5----4--4--5--5--|
A|-2-----2-----3--------------2--2--3--3--|
E|----------------------------------------|
                                            
e|----------------------------------------|
B|------------------3--3-3-5--------------|
G|-4--2--4--2--4-5------------4-----5-----|
D|-4-----4-----5----5---------4--4--5--5--|
A|-2-----2-----3--------------2--2--3--3--|
E|----------------------------------------|
                    
                    The Third Lament: The Indoctrination Of Oppression
(To Learn the path ahead is of DERELICTION fore you are not but dust swept from heavens floor)
e|-----------------------------------------|
B|------------------5----------------------|
G|-6--4--6--4--6-7--6---7---7--6-----7-----|
D|-6-----6-----7----7----7-----6--6--7--7--|
A|-4-----4-----5---------------4--4--5--4--|
E|-----------------------------------------|
 
e|-----------------------------------------|
B|------------------5--5--5--7-------------|
G|-6--4--6--4--6-7--6----------6-----7-----|
D|-6-----6-----7----7----------6--6--7--7--|
A|-4-----4-----5---------------4--4--5--5--|
E|-----------------------------------------|

                           The Fourth Lament: Refusal To Seek Penance
          (To KNOW that ye are an abomination unto the world that sustains your life)
e|-----------------------------------------|
B|------------------7----------------------|
G|-8--6--8--6--8--9----9---9----8--8--9-9--|
D|-------8-----9----9----9------8--8--9-9--|
A|-6-----6-----7----7-----------6--6----7--|
E|-6-----------7----------------6-----7----|

e|-----------------------------------------|
B|------------------7--7--7--9-------------|
G|-8--6--8--6--8--9-------------8--8--9-9--|
D|-------8-----9----9-----------8--8--9-9--|
A|-6-----6-----7----7-----------6--6----7--|
E|-6-----------7----------------6-----7----|

              The Fifth Lament: Swallowing pride and succumbing to the Inevitable
                      (Understanding Your PURPOSE IS TO BRING JUDGMENT)
e|--------------------------------------------------|
B|----------------------9---------------------------|
G|-10--8--10--8--10--11---11----11--10--10--11--11--|
D|-10-----10-----11----------11-----10--10--11--11--|
A|-8------8------9------------------8---8---9---9---|
E|-8-------------9------------------8-------9---9---|


e|--------------------------------------------------|
B|----------------------9--9--9--11-----------------|
G|-10--8--10--8--10--11-------------10--10--11--11--|
D|-10-----10-----11-----------------10--10--11--11--|
A|-8------8------9------------------8---8---9---9---|
E|-8-------------9------------------8-------9---9---|

                The Sixth Lament: To Declare Judgment On The World
(The pain you've been given is your sword to slay them AND with great bias and  discrimination SHALL YE GO FORTH AND SLAY THEM ALL as they've so generously laid your soul asunder with their  HATRED AND DISCRIMINATION burning and destroying every good thing there was about you)



e|-7------------------------|   e|-7------------------------|
B|-7--10--8--10--8--7-----7-|   B|-7--10--8--10--8--7-------|
G|--------7------7-----9----|   G|--------7------7-----9--7-|
D|--------------------------|   D|--------------------------|
A|-----------7---8----------|   A|-----------7---8----------|
E|-7------7------------8----|   E|-7------7------------8----|

                          The Seventh Lament: Violent Disgust
             (To wash thy hands of humanity and all therein that may be explored)
e|-------------------|    e|---------------------|
B|-------------------|    B|------------------8--|
G|-------------------|    G|----------------8----|
D|-9--7---7--10------|    D|-9--7---7-----8------|
A|-9----9----10--10--|    A|-9----9----10--------|
E|-7----7----8---8---|    E|-7----7----8---------|


e|-------------------|     e|--------------------6-|
B|-------------------|     B|----------------------|
G|-7--5-----5--8-----|     G|-7--5-----5-----6-8---|
D|-7-----7-----8-----|     D|-7-----7-----8--------|
A|-5-----5-----6--6--|     A|-5-----5-----6--------|
E|----------------6--|     E|----------------------|

                   The Eighth Lament:Scourge
(Scorch the Earth until it bleeds ashes from the sky.The enemy's bones lay broken and smoldering at thy feet but rage knows no bounds. Feel no mercy as thy judge the wicked.)


e|-7------------------------|   e|-7------------------------|
B|-7--10--8--10--8--7-----7-|   B|-7--10--8--10--8--7-------|
G|--------7------7-----9----|   G|--------7------7-----9--7-|
D|--------------------------|   D|--------------------------|
A|-----------7---8----------|   A|-----------7---8----------|
E|-7------7------------8----|   E|-7------7------------8----|

                     The Ninth Lament: Penance Denied
              (The guilty always plea for forgiveness. Show them none.)

e|---------------------------------|
B|---------------------------------|
G|---------------------------------|
D|----9--10--------9----10--10--10-|
A|----9--10--------9----10------10-|
E|-7--------7---7-----8---------8--|

                        The Final Lament: Solitude Brings Solace
          (The World in ruin, inner peace has been found yet the rage has only just begun)

e|----------------------|
B|----------------------|
G|----------------------|
D|---2----3------2---2--|
A|-1/2----1----3/2---2--|
E|---0----1------0---1--|




/=slide
Login or Register to remove this ad.