Ads

Mini Boss Confrontation (Super Metroid) Guitar Tab

Submitted: Jan 28, 2015 by JordanVS

5
Average: 5 (1 vote)
Download | Listen
Game: Super Metroid
Composer(s): Kenji Yamamoto, Minako Hamano
Style: Arrangement, Fingerstyle
Series: Metroid

This song is also called Small Boss

AutoScroll: Slow | Medium | Fast
Mini Boss                                               
Mini Boss Confrontation / Small Boss
Super Metroid
Kenji Yamamoto & Minako Hamano
JordanVS

*Capo on the 3rd fret
-Tempo : 80


      |--3--|  |--3--|  |--3--|  |--3--|     |--3--|  |--3--|  |--3--|  |--3--|   
      E  E  E  E  E  E  E  E  E  E  E  E     E  E  E  E  E  E  E  E  E  E  E  E   
E||---------------------------------------|--------------------------------------|
B||---4--3--2-----------4--3--2-----------|--4--3--2-----------4--3--2--------0--|
G||*-----------2--3--4-----------2--3--4--|-----------2--3--4-----------2--3-----|
D||*--------------------------------------|--------------------------------------|
A||---------------------------------------|--------------------------------------|
E||---------------------------------------|-----------------------------2--------|


  |--3--|  |--3--|  |--3--|  |--3--|     |--3--|  |--3--|  |--3--|  |--3--|   
  E  E  E  E  E  E  E  E  E  E  E  E     E  E  E  E  E  E  E  E  E  E  E  E   
--------------------------------------|--------------------------------------|
--4--3--2--------0--4--3--2--------0--|--4--3--2--------0--4--3--2--------0--|
-----------2--3--------------2--3-----|-----------2--3--------------2--3-----|
--------------------------------------|--------------------1-----------------|
--------------------------------------|--------------------------------------|
--1-----------------------------------|--------------------------------------|


  |--3--|  |--3--|  |--3--|  |--3--|     |--3--|  |--3--|  |--3--|  |--3--|   
  E  E  E  E  E  E  E  E  E  E  E  E     E  E  E  E  E  E  E  E  E  E  E  E   
--------------------------------------|--------------------------------------|
--4--3--2--------0--4--3--2--------0--|--4--3--2-----------4--3--2-----------|
-----------2--3--------------2--3-----|-----------2--3--4-----------2--3--4--|
--0-----------------------------------|--L-----------------------------------|
--------------------------------------|--------------------------------------|
--------------------------------------|--------------------------------------|


  |--3--|  |--3--|  |--3--|  |--3--|     |--3--|  |--3--|  |--3--|  |--3--|   
  E  E  E  E  E  E  E  E  E  E  E  E     E  E  E  E  E  E  E  E  E  E  E  E   
--------------------------------------|--------------------------------------|
--4--3--2-----------4--3--2-----------|--4--3--2-----------4--3--2-----------|
-----------2--3--4-----------2--3--4--|-----------2--3--4-----------2--3--4--|
--------------------------------------|--------------------------------------|
--------------------------------------|--------------------------------------|
--------------------------------------|--------------------------------------|


  |--3--|  |--3--|  |--3--|  |--3--|     |--3--|  |--3--|  |--3--|  |--3--|     
  E  E  E  E  E  E  E  E  E  E  E  E     E  E  E  E  E  E  E  E  E  E  E  E     
--------------------------------------|---------------------------------------||
--4--3--2-----------4--3--2-----------|--4--3--2-----------4--3--2------------||
-----------2--3--4-----------2--3--4--|-----------2--3--4-----------2--3--4--*||
--------------------------------------|--------------------------------------*||
--------------------------------------|---------------------------------------||
--------------------------------------|---------------------------------------||




Duration Legend
---------------
W - whole
H - half
Q - quarter
E - 8th
S - 16th
T - 32nd
X - 64th
. - note dotted
|-n-|  - n-tuplets


Tablature Legend
----------------
L - tied note
^ - brush up
v - brush down
Login or Register to remove this ad.

2 comments on Mini Boss Confrontation

It's called 6/8 time. It

It's called 6/8 time.
It doesn't have triplets.

Overall, the drum in the

Overall, the drum in the original song is really confusing !
Maybe 6/8 is the best, but I'd be attracted by a 3/8 time signature ^-^
But, all the same, the drum is too confusing xD