Ads

Maridia (Deep Water Area) - 7 String Version (Super Metroid) Guitar Tab

Submitted: Mar 26, 2013 by dsousa2000

0
Download | Listen
Game: Super Metroid
Composer(s): Kenji Yamamoto, Minako Hamano
Style: Alternate picking, Transcription
Series: Metroid

AutoScroll: Slow | Medium | Fast
Maridia Swampy Caverns
Tabbed by dsousa2000


7 String Tuning - BEADGBE

 4/4                                 3/4
  E E E E E E E E   E E E E E E E E   E E  E E E E
|-----------------|-----7---8-------|-7---10---8-----|
|-----7---6---7---|-----------------|----------------|
|-----------------|---9---9---9---9-|---9----9---9---|
|---8---8---8---8-|-----------------|----------------|
|-----------------|-----------------|----------------|
|-----------------|-----------------|----------------|
|-----------------|-----------------|----------------|


 4/4
  E E E E E E E E    E  E E E E E E E   E E E E E E E E    E  E E E  E E E E
|-----------------|-------------------|-----7---8---7---|-------7---10---8----|
|-----7---6---7---|-------7---6---7---|-----------------|---------------------|
|-----------------|-------------------|---9---9---9---9-|-----9---9----9---9--|
|---8---8---8---8-|-----8---8---8---8-|-7---------------|-(7)-----------------|
|-6---------------|-(6)---------------|-----------------|---------------------|
|-----------------|-------------------|-----------------|---------------------|
|-----------------|-------------------|-----------------|---------------------|
  W                 +W                  W                 +W


  E E E E E E E E    E  E E E E E E E   E E E E E E E E    E  E E E E E E E
|-----------------|-------------------|-----------------|-------------------|
|-----4---3---4---|-------3---4---3---|-----------------|-------------------|
|-----------------|-------------------|-----3---2---3---|-------3---2---3---|
|---5---5---5---5-|-----5---5---5---5-|-----------------|-------------------|
|-3---------------|-(3)---------------|---5---5---5---5-|-----5---5---5---5-|
|-----------------|-------------------|-3---------------|-(3)---------------|
|-----------------|-------------------|-----------------|-------------------|
  W                 +W                  W                 +W


  E E E E E E E E   E E E E E E E E   E  E E  E E  E E  E    E E E E E E  E E
|-----------------|-----------------|---------------------|-------------------|
|-----------------|-----------------|---------------------|-------------------|
|-----6---5---6---|-----------------|------9----8----9----|----------7-9------|
|-----------------|-----5---8---6---|---------------------|------9-------10---|
|---8---8---8---8-|-----------------|---11---11---11---11-|----7---7--------7-|
|-6---------------|---8---8---8---8-|-9-------------------|-------------------|
|-----------------|-6---------------|---------------------|-10----------------|
  W                 W                 W                      W


  E E E E E E E E    E  E E E E E E E    E  E E E E E E E   E E E E E E E E
|-----------------|-------------------|-------------------|-----------------|
|-----------------|-------------------|-------------------|-----------------|
|-----------------|-------------------|-------------------|-----------------|
|-----4---3---6---|-----------6-------|---------------6---|-----6-------8---|
|-----------------|-------8-------8---|-------9---8-------|-8-------9-------|
|---6---6---6---6-|-----6---6---6---6-|-----6---6---6---6-|---6---6---6---6-|
|-4---------------|-(4)---------------|-(4)---------------|-----------------|
  W                 +W                  +W

                   7/8             4/4
  E E E E E E E E   E E E E E E E   E E E E E E E E   E E E E E E E E
|-----------------|---------------|-----------------|------------------|
|-----------------|---------------|-----------------|------------------|
|-----------------|---------------|-----------------|------------------|
|-----4---3---6---|-----4---3-----|-------------6---|-----6-------8----|
|-6---------------|-6---------4---|-----9---8-------|-8-------9--------|
|---4---4---4---4-|---4---4-----6-|---6---6---6---6-|---6---6---6---6--|
|-----------------|---------------|-4---------------|------------------|
                                    W

                   7/8             4/4
  E E E E E E E E   E E E E E E E   E E E E E E E E   E E E E E E E E
|-----------------|---------------|-----------------|------------------*|
|-----------------|---------------|-----------------|------------------*|
|-----------------|---------------|-----------------|------------------*|
|-----4---3---6---|-----4---3-----|-------------6---|-----6-------8----*|
|-6---------------|-6---------4---|-----9---8-------|-8-------9--------*|
|---4---4---4---4-|---4---4-----6-|---6---6---6---6-|---6---6---6---6--*|
|-----------------|---------------|-4---------------|------------------*|
Login or Register to remove this ad.