Ads

Lower Brinstar (Super Metroid) Guitar Tab

Submitted: Dec 23, 2014 by JordanVS

5
Average: 5 (3 votes)
Download | Listen
Game: Super Metroid
Composer(s): Kenji Yamamoto, Minako Hamano
Style: Arrangement, Fingerstyle
Series: Metroid

This song is also called Brinstar 2 / Red Soil Swamp Pulse / Red Brinstar

AutoScroll: Slow | Medium | Fast
Lower Brinstar                                            
Brinstar 2 / Red Soil Swamp Pulse / Red Brinstar
Super Metroid
Kenji Yamamoto & Minako Hamano           
JordanVS                                                                      

*Capo on the 1st fret
*Drop D Tuning (D - A - D - G - B - e)
-4/4 ~ 6/8
-Tempo : 75



     E  E  E  E  E  E   Q       E  E  E  E  E  E   Q       E  E  E  E  E  E   Q     
E||--------------------------|--------------------------|--------------------------|
B||--------3--------1---L----|-----------------1---L----|--------3--------1---L----|
G||-----0--------0-----------|-----0--2-----0-----------|-----0--------0-----------|
D||--0--------1--------------|--0--------1--------------|--0--------1--------------|
A||--------------------------|--------------------------|--------------------------|
D||--0--------1--L-----------|--0--------1--L-----------|--0--------1--L-----------|


  E  E  E  E  E  E   Q       E  E  E  E  E  E   Q       E  E  E  E  E  E   Q     
--------------------------|--------------------------|--------------------------|
-----------------1---L----|--------3--------1---L----|--------3--------1---L----|
-----0--2-----0-----------|-----0--------0-----------|-----0--------0-----------|
--0--------1--------------|--0--------1--------------|--0--------1--------------|
--------------------------|--------------------------|--------------------------|
--0--------1--L-----------|--0--------1--L-----------|--0--------1--L-----------|

*Segno

    E  E  E  E  E  E   Q       E  E  E  E  E  E   Q       E  E  E  E  E  E  E  S S  
|---------------------------|--------------------------|---------------------------|
|---------3--------1---L----|--------3--------1---L----|--3-----3--------1--L------|
|*-----0--------0-----------|-----0--------0-----------|-----0--------0--------2-0-|
|*--0--------1--------------|--0--------1--------------|--0--------1---------------|
|---------------------------|--------------------------|---------------------------|
|---0--------1--L-----------|--0--------1--L-----------|--0--------1--L------------|

                            1.
  E  E  E  E  E  E  E  S S    E  E  E  E  E  E  E  E     E  E  E  E  E  E   Q       
---------------------------|--------------------------|---------------------------||
--------3--------1--L------|--------3--------1--L-----|--------3--------1---L-----||
--2--0--------0--------0---|-----0--------0--------0--|-----0--------0-----------*||
--0--------1-------------0-|--3--------1--------------|--0--------L--------------*||
---------------------------|--------------------------|---------------------------||
--0--------1--L------------|--0--------1--L-----------|--0--------1--L------------||

2.
  E  E  E  E  E  E  E  E     E  E  E  E  E  E   Q         E  E  E  E  E  E   Q     
-----------------------1--|--------------------------||---------------------------|
--------3--------1--L-----|--3-----3--------1---L----||---------3--------1---L----|
-----0--------0-----------|-----0--------0-----------||*-----0--------0-----------|
--3--------1--------------|--0--------1--------------||*--0--------1--------------|
--------------------------|--------------------------||---------------------------|
--0--------1--L-----------|--0--------1--L-----------||---0--------1--L-----------|


  E  E  E  E  E  E   Q     4x  S S S S S S E  H           E  E  E  E  H         
---------------------------||--------------------------|-----------------------|
--------3--------1---L-----||--3-1---------------------|-----------------------|
-----0--------0-----------*||------2-0-2---0-----------|-----------0--L--------|
--0--------1--------------*||--0---------3----0--------|-----0--3--------------|
---------------------------||--------------------------|--0--------------------|
--0--------1--L------------||--0-----------1--L--------|--0--------1--L--------|


  S S S S S S E  H           E  E  E  E  H           S S S S S S E  H         
--------------------------|-----------------------|--------------------------|
--3-1---------------------|-----------------------|--------------------------|
------2-0-2---0-----------|--------2--0--L--------|----0-2---0-2-0-----------|
--0---------3----0--------|-----0-----------------|--3-----0--------0--------|
--------------------------|--0--------------------|--------------------------|
--0-----------1--L--------|--0--------1--L--------|--0-----------1--L--------|

						      *Fine

  S S S S S S E  H           S S S S S S S S S S S S    H.                E  E  E  E  E  E   Q     
--------------------------|--------------------------|---------------||---------------------------|
-----------------1--------|--3-1---------------------|---------------||---------3--------1---L----|
----0-2---0-2-0-----------|------2-0-2---2-0---------|---------------||*-----0--------0-----------|
--3-----0-----------------|--0---------3-----3-0-3---|--0------------||*--0--------1--------------|
--------------------------|------------------------3-|---------------||---------------------------|
--0-----------1--L--------|--0-----------1-----------|--0------------||---0--------1--L-----------|

									*D.S. al Fine
  E  E  E  E  E  E   Q     3x  E  E  E  E  E  E   Q       E  E  E  E  E  E   Q      
---------------------------||--------------------------|--------------------------||
--------3--------1---L-----||--------3--------1---L----|--------3--------1---L----||
-----0--------0-----------*||-----0--------0-----------|-----0--------0-----------||
--0--------1--------------*||--0--------1--------------|--0--------1--------------||
---------------------------||--------------------------|--------------------------||
--0--------1--L------------||--0--------1--L-----------|--0--------1--L-----------||




Duration Legend
---------------
W - whole
H - half
Q - quarter
E - 8th
S - 16th
T - 32nd
X - 64th
. - note dotted
|-n-|  - n-tuplets


Tablature Legend
----------------
L - tied note
^ - brush up
v - brush down
Login or Register to remove this ad.

1 comment on Lower Brinstar

Hard to keep bass and highs

5

Best Brinstar's I played so far :D