Ads

Brinstar (Red Soil Area) (Super Metroid) Guitar Tab

Submitted: Jan 17, 2010 by LTRobson (Last updated: Jan 18, 2010)

0
Download | Listen
Game: Super Metroid
Composer(s): Kenji Yamamoto, Minako Hamano
Style: Alternate picking, Transcription
Series: Metroid

AutoScroll: Slow | Medium | Fast
Super Metroid - Brinstar (Red Soil Area) (SNES)
Tabbed by LTRobson 16/06/07

Drop-D tuning

|---------------------------------|
|---------------------------------|
|---------------------------------|
|-1-1-1-1-1-1-2-2-2-2-2-2-2-2-2-2-|
|-1-1-1-1-1-1-2-2-2-2-2-2-2-2-2-2-|
|-1-1-1-1-1-1-2-2-2-2-2-2-2-2-2-2-|
  - - - - - - - - - - - - - - - - (palm-muting)

|-11~-----------------------------------|
|---------11-9-11~-----9---7~-----9-----|
|------------------------8-----------8~-|
|---------------------------------------|
|---------------------------------------|
|---------------------------------------|

|-11~-----------------------------14-11~-|
|---------11-9-11~-----9---7~------------|
|------------------------8---------------|
|----------------------------------------|
|----------------------------------------|
|----------------------------------------|
Login or Register to remove this ad.