The Battle of Lil' Slugger (Super Meat Boy!) Bass/Guitar Tab

Submitted: Apr 12, 2011 by Jacob31593 (Last updated: Apr 15, 2011)

5
Average: 5 (3 votes)
Download | Listen
Game: Super Meat Boy!
Composer(s): Danny Baranowsky
Style: 2 or more instruments, Alternate picking, Artificial harmonics, Pinch harmonics, Sweep picking, Tapping, Transcription

This song is also called Forest Boss

AutoScroll: Slow | Medium | Fast

The Battle of Lil' Slugger from Super Meat Boy
Composed by Danny Baranowsky
Tabbed by Jacob31593
April 12th 2011

You're probably only here for the lead, so to get the rest of the tab you'll have to download the guitar pro file up top!
Note: Strangejam fingered this tab :U
204~ BPM

Guitar

     E  E  E  E  E  E  E  E     E  E  E  E  E  E  E  E     E  E  E  E  E  E  E  E   
E||--------------------------|--------------------------|--------------------------|
B||--------------------------|--------------------------|--------------------------|
G||--7-----------------------|--------------------7-----|--7-----------------------|
D||-----0--------------------|-----------------0-----0--|-----0--------------------|
A||--------------------------|--------------------------|--------------------------|
E||--------------------------|--------------------------|--------------------------|


  E  E  S S S S S S S S S S S S    E  E  E  E  E  E  E  E     E  E  E  E  E  E  E  E   
--------------------------------|--------------------------|--------------------------|
--------------------------------|--------------------------|--------------------------|
--------------------------------|--7-----------------------|--------------------7-----|
--------3-3-3-3-5-5-5-5-7-7-7-7-|-----0--------------------|-----------------0-----0--|
--------------------------------|--------------------------|--------------------------|
--------------------------------|--------------------------|--------------------------|


  E  E  E  E  E  E  E  E     E  E  S S S S S S S S S S S S    E  E  E  E  E  E  E  E   
--------------------------|--------------------------------|--------------------------|
--------------------------|--------------------------------|--------------------------|
--7-----------------------|--------------------------------|--------------------------|
-----0--------------------|--------7-7-7-7-5-5-5-5-3-3-3-3-|--0-----------------------|
--------------------------|--------------------------------|--------------------------|
--------------------------|--------------------------------|--------------------------|


  E  E  E  E  E  E  E  E     E  E  E  E  E  E  E  E     E  E  E  E  E  E  E  E     E  E  E  E  E  E  E  E   
--------------------------|--------------------------|--------------------------|--------------------------|
--------------------------|--------------------------|--------------------------|--------------------------|
--------------------------|--------------------------|--------------------------|--------------------------|
--------------------------|--------------------------|--------------------------|--------------------------|
--5--------5--------5-----|--5--5--------------------|--5--------5--------8-----|--5--5--------------------|
--------------------------|--------------------------|--------------------------|--------------------------|


  E  E  E  E  E  E  E  E     E  E  E  E  E  E  E  E     E  E  E  E  E  E  E  E                           
--------------------------|--------------------------|--------------------------|-----|-----|-----|-----|
--------------------------|--------------------------|--------------------------|-----|-----|-----|-----|
--------------------------|--------------------------|--------------------------|-----|-----|-----|-----|
--------------------------|--------------------------|--------------------------|-----|-----|-----|-----|
--5--------5--------5-----|--5--5--------------------|--5--------5--------5--5--|-----|-----|-----|-----|
--------------------------|--------------------------|--------------------------|-----|-----|-----|-----|


                                                                           E  E   E   E   E   E  E   E   
-----|-----|-----|-----|-----|-----|-----|-----|-----|-----|-----|-----|--------------------------------|
-----|-----|-----|-----|-----|-----|-----|-----|-----|-----|-----|-----|--------------------------------|
-----|-----|-----|-----|-----|-----|-----|-----|-----|-----|-----|-----|-------------10--12--10--9--10--|
-----|-----|-----|-----|-----|-----|-----|-----|-----|-----|-----|-----|--12--7--12---------------------|
-----|-----|-----|-----|-----|-----|-----|-----|-----|-----|-----|-----|--------------------------------|
-----|-----|-----|-----|-----|-----|-----|-----|-----|-----|-----|-----|--------------------------------|


                                                                     T       T       T       T       
   E  E   E   E  E   E   E   E      E  E   E   E   E   E  E   E      E   E   E   E   E   E   E   E   
--------------------------------|--------------------------------|----------------------------------|
--------------------------------|--------------------------------|----------------------------------|
-------------10--9--------------|-------------10--12--10--9--10--|----------------------------------|
--12--7--12-------------11------|--12--7--12---------------------|--20--12--19--12--18--12--19--12--|
--------------------12------12--|--------------------------------|----------------------------------|
--------------------------------|--------------------------------|----------------------------------|


   E   E   E   E   E   E   E   E        E  E   E   E     E   E   E   E   
----------------------------------|-------------------9g10------10--12--|
----------------------------------|--9g10---------10--------10----------|
--19------------------------------|--------9--10------------------------|
--------------14--15--12--14--15--|-------------------------------------|
------12--17----------------------|-------------------------------------|
----------------------------------|-------------------------------------|


   S   S  S  S  S   S  S  S  S  S  S  S  S  S  S  S     S   S  S S  S  S  S S  S  S  S S  S  S  S S  
--13p-10-------13p-10-------13-10-------13-10-------|--12p-10------12-10------12-10------12-10------|
---------10-----------10----------10----------10----|---------10---------10---------10---------10---|
------------10-----------10----------10----------10-|------------9----------9----------9----------9-|
----------------------------------------------------|-----------------------------------------------|
----------------------------------------------------|-----------------------------------------------|
----------------------------------------------------|-----------------------------------------------|


    E   E   E   E   E   E   E   E       E   S  S  E   S  S  E   E   E   E   
--/10------10--12--13--10--13--15--|--/18--17-18-17--15-17-15--17--15------|
-------10--------------------------|-----------------------------------18--|
-----------------------------------|---------------------------------------|
-----------------------------------|---------------------------------------|
-----------------------------------|---------------------------------------|
-----------------------------------|---------------------------------------|


   E   E   E   E   S  S  S  S  S  S  S  S      E      E   E   E   E   S  S  E   S  S  
--------------15--20-15-------20-15-------|--/15--15g17--15-------------15--------15-|
--17------17------------17----------17----|------------------18--17--18----17--------|
------17-------------------17----------17-|------------------------------------17----|
------------------------------------------|------------------------------------------|
------------------------------------------|------------------------------------------|
------------------------------------------|------------------------------------------|


   S  S  S  S  S  S  S  S  S  S  S  S  S  S  S  S     S  S  S  S  S  S  S  S  S  S  S  S  S  S  S  S  
--------------------------------------15----------|--------15----17----18----17----15----------------|
--15----17----18----15----17----18----------17----|--18----------------------------------18----17----|
-----15----15----15----15----15----15----15----15-|-----15----15----15----15----15----15----15----15-|
--------------------------------------------------|--------------------------------------------------|
--------------------------------------------------|--------------------------------------------------|
--------------------------------------------------|--------------------------------------------------|


   T T  T  T  T T  T  T  T T  T  T  T T  T  T     T T  T  T  T T  T  T T T  T  T T T  T  T    
   S S  S  S  S S  S  S  S S  S  S  S S  S  S     S S  S  S  S S  S  S S S  S  S S S  S  S  3x
--13---------13---------13---------13---------|--12---------12---------9---------9----------||
----------10---------10---------10---------10-|----------10---------10--------10--------10--||
-----7-10-------7-10-------7-10-------7-10----|-----7-10-------7-10------7-10------7-10----*||
----------------------------------------------|--------------------------------------------*||
----------------------------------------------|---------------------------------------------||
----------------------------------------------|---------------------------------------------||




Duration Legend
---------------
W - whole
H - half
Q - quarter
E - 8th
S - 16th
. - note dotted
|-n-|  - n-tuplets


Tablature Legend
----------------
L - tied note
x - dead note
g - grace note
NH - natural harmonic
AH - artificial harmonic
TH - tapped harmonic
SH - semi harmonic
PH - pitch harmonic
h - hammer on
p - pull off
s - legato slide
/ -  slide into from below or out of upwards
\ -  slide into from above or out of downwards
T - tapping


Bass

     E  E  E  E  E  E  E  E     E  E  E  E  E  E  E  E     E  E  E  E  E  E  E  E   
G||--------------------------|--------------------------|--------------------------|
D||--------------------------|--------------6--6--6--6--|--------------------------|
A||--5--5--5--5--5--5--5--5--|--5--5--5--5--------------|--5--5--5--5--5--5--5--5--|
E||--------------------------|--------------------------|--------------------------|


  E  E  E  E  E  E  E  E     E  E  E  E  E  E  E  E     E  E  E  E  E  E  E  E     E  E  E  E  E  E  E  E   
--------------------------|--------------------------|--------------------------|--------------------------|
--------------------3--3--|--------------------------|--------------6--6--6--6--|--------------------------|
--5--5--3--3--5--5--------|--5--5--5--5--5--5--5--5--|--5--5--5--5--------------|--5--5--5--5--5--5--5--5--|
--------------------------|--------------------------|--------------------------|--------------------------|


  E  E  E  E  E  E  E  E     E  E  E  E  E  E  E  E     E  E  E  E  E  E  E  E     E  E  E  E  E  E  E  E   
--------------------------|--------------------------|--------------------------|--------------------------|
--------------------3--3--|--------------------------|--------------6--6--6--6--|--------------------------|
--5--5--3--3--5--5--------|--5--5--5--5--5--5--5--5--|--5--5--5--5--------------|--5--5--5--5--5--5--5--5--|
--------------------------|--------------------------|--------------------------|--------------------------|


  E  E  E  E  E  E  E  E     E  E  E  E  E  E  E  E     E  E  E  E  E  E  E  E     E  E  E  E  E  E  E  E   
--------------------------|--------------------------|--------------------------|--------------------------|
--------------------3--3--|--------------------------|--------------6--6--6--6--|--------------------------|
--5--5--3--3--5--5--------|--5--5--5--5--5--5--5--5--|--5--5--5--5--------------|--5--5--5--5--5--5--5--5--|
--------------------------|--------------------------|--------------------------|--------------------------|


  E  E  E  E  E  E  E  E     E  E  E  E  E  E  E  E     E  E  E  E  E  E  E  E     E  E  E  E  E  E  E  E   
--------------------------|--------------------------|--------------------------|--------------------------|
--------------------3--3--|--------------------------|--------------6--6--6--6--|--------------------------|
--5--5--3--3--5--5--------|--5--5--5--5--5--5--5--5--|--5--5--5--5--------------|--5--5--5--5--5--5--5--5--|
--------------------------|--------------------------|--------------------------|--------------------------|


  E  E  E  E  E  E  E  E     E  E  E  E  E  E  E  E     E  E  E  E  E  E  E  E     E  E  E  E  E  E  E  E   
--------------------------|--------------------------|--------------------------|--------------------------|
--------------------3--3--|--------------------------|--------------6--6--6--6--|--------------------------|
--5--5--3--3--5--5--------|--5--5--5--5--5--5--5--5--|--5--5--5--5--------------|--5--5--5--5--5--5--5--5--|
--------------------------|--------------------------|--------------------------|--------------------------|


  E  E  E  E  E  E  E  E     E  E  E  E  E  E  E  E     E  E  E  E  E  E  E  E     E  E  E  E  E  E  E  E   
--------------------------|--------------------------|--------------------------|--------------------------|
--------------------3--3--|--------------------------|--------------6--6--6--6--|--------------------------|
--5--5--3--3--5--5--------|--5--5--5--5--5--5--5--5--|--5--5--5--5--------------|--5--5--5--5--5--5--5--5--|
--------------------------|--------------------------|--------------------------|--------------------------|


  E  E  E  E  E  E  E  E     E  E  E  E  E  E  E  E     E  E  E  E  E  E  E  E     E  E  E  E  E  E  E  E   
--------------------------|--------------------------|--------------------------|--------------------------|
--------------------3--3--|--------------------------|--------------6--6--6--6--|--------------------------|
--5--5--3--3--5--5--------|--5--5--5--5--5--5--5--5--|--5--5--5--5--------------|--5--5--5--5--5--5--5--5--|
--------------------------|--------------------------|--------------------------|--------------------------|


        E  E  E  E  E  E  E  E     E  E  E  E  E  E  E  E     E  E  E  E  E  E  E  E   
-----|--------------------------|--------------------------|--------------------------|
-----|--------------------------|--------------------------|--------------------------|
-----|--5--5--5--5--5--5--5--5--|--5--5--5--5--5--5--5--5--|--------------------------|
-----|--------------------------|--------------------------|--8--8--8--8--8--8--8--8--|


  E  E  E  E  E  E  E  E     E  E  E  E  E  E  E  E     E  E  E  E  E  E  E  E     E  E  E  E  E  E  E  E   
--------------------------|--------------------------|--------------------------|--------------------------|
--------------------------|--------------------------|--------------------------|--------------------------|
--------------------------|--------------------------|-----------5--5--5--5--5--|--------------------------|
--8--8--8--8--8--8--8--8--|--3--3--3--5--5--5--5--6--|--6--6--6-----------------|--5--5--5--5--5--5--5--5--|


  E  E  E  E  E  E  E  E     E  E  E  E  E  E  E  E     E  E  E  E  E  E  E  E     E  E  E  E  E  E  E  E   
--------------------------|--------------------------|--------------------------|--------------------------|
--------------------------|--------------------------|--------------------------|--------------------------|
--------------------------|--5--5--5--5--5--5--5--5--|--5--5--5--5--5--5--5--5--|--------------------------|
--5--5--5--5--5--5--5--5--|--------------------------|--------------------------|--8--8--8--8--8--8--8--8--|


  E  E  E  E  E  E  E  E     E  E  E  E  E  E  E  E     E  E  E  E  E  E  E  E     E  E  E  E  E  E  E  E   
--------------------------|--------------------------|--------------------------|--------------------------|
--------------------------|--------------------------|--------------------------|--------------------------|
--------------------------|--------------------------|-----------5--5--5--5--5--|--------------------------|
--8--8--8--8--8--8--8--8--|--3--3--3--5--5--5--5--6--|--6--6--6-----------------|--5--5--5--5--5--5--5--5--|


  E  E  E  E  E  E  E  E   3x
---------------------------||
--------------------------*||
--------------------------*||
--5--5--5--5--5--5--5--5---||
Login or Register to remove this ad.

5 comments on The Battle of Lil' Slugger

Broboy

5

Broboy

super rooooo boy

5

super rooooo boy

i love having pizza's from

5

i love having pizza's from Boodoo's Voodoo & Hoodoo Shop, instead of going to outlets, you can enjoy the way you want to in your home.

SPAM BOT

But I'm not even mad, since it was kind enough to give a 5-star rating on the tab.

The user is now banned, but I

The user is now banned, but I left his/her nice robotic comment with a slight change.