Ads

Ending Theme (Super Mario World) Guitar Tab

Submitted: Apr 21, 2009 by kurebisubarudo (Last updated: Jul 19, 2016)

4.75
Average: 4.8 (8 votes)
Download | Listen
Game: Super Mario World
Composer(s): Koji Kondo
Style: Arrangement, Fingerstyle
Series: Mario

AutoScroll: Slow | Medium | Fast

Ending Theme

Pista 1
      Q    E  Q     E   Q    E  Q     E      Q    E  Q     E   Q.     Q.      
E||---0-------------0---0------------10--|--10------------10--10-------------|
B||--12------------12--12----------------|-----------------------------------|
G||----------------------------------11--|--11------------11--11-------------|
D||--------------------------------------|--------0--0----------------0------|
A||--------0--0--------------0--0--------|-----------------------------------|
E||--------------------------------------|-----------------------------------|


    Q    E  Q    E  Q.     Q    E     Q    E  E  E  E  Q.     Q    E   
|-----------0-------------------0--|--2----3--2--1--0--L--------------|
|---0----3-------3--L--------------|----------------------------------|
|*---------------------------------|-------------------------------3--|
|*----------0--------------0-------|----------0---------------0-------|
|-------------------2--------------|-------------------2--------------|
|---3------------------------------|--2-------------------------------|


  Q    E  Q    E  Q.     Q    E     Q    E  E  E  E  Q.     Q    E   
----------0----------------------|--0----1--0-----------------------|
--0----3-------3--L-----------4--|-------------4--3--L-----------4--|
---------------------------------|----------------------------------|
----------0--------------0-------|----------0---------------0-------|
------------------2--------------|-------------------2--------------|
--3------------------------------|--0-------------------------------|


  Q    E  Q    E  Q.     Q    E     Q    E  Q    E  Q.     Q.      
--0----2--3----0--L------L-------|----------0---------------------|
------------------------------4--|--3----4-------0--L-------------|
----------0--------------0-------|----------0---------------------|
---------------------------------|--0----------------------2------|
--3---------------4--------------|------------------0-------------|
---------------------------------|--------------------------------|


  Q    E  Q    E  Q    E  Q    E     Q.     Q    E  Q.     Q.        
----------------------------------|--------------------------------||
--0------------0-------0-------3--|--L------L----L-----------------||
-------0----------0-------0-------|-----------------0------2------*||
----------2---------------2-------|--0------0----0--2------4------*||
--0---------------4---------------|---------9----9-----------------||
----------------------------------|--------------------------------||


  Q    E  Q    E  Q.     Q.        Q    E  Q    E  Q    E  Q    E     Q.     Q    E  Q.     Q.      
----------0----7--L-------------|--7----6--7----3--L----3--0----3--|--L------3----3--2------1------|
--3----4------------------------|----------------------------------|-------------------------------|
----------0---------------------|----------0-----------------------|--0----------------------------|
--0----------------------2------|------------------0-------4-------|-------------------------------|
------------------0-------------|--0-------------------------------|-------------------------------|
--------------------------------|----------------------------------|---------3----3--2------1------|


  Q.     Q.     Q    E  Q    E     Q    E  Q    E  Q.     Q    E   
--0------7------7----7--6----7--|--8----7--4----0--L------L----0--|
---------0--------------0-------|----------0--------------0-------|
--------------------------------|---------------------------------|
--2-----------------------------|--2------------------------------|
----------------2---------------|------------------2--------------|
--0-----------------------------|---------------------------------|


  Q    E  Q    E  Q    E  Q    E     Q    E  Q.     Q.     Q.        Q.     Q.     Q    E  Q    E   
--7----5--7----5--7----5--3----0--|--L----L-----------------------|---------5------5----5--4----5--|
----------------------------------|-------------------------------|--3-----------------------------|
----------------------------------|--2----2--0--------------------|---------2--------------2-------|
--------------------------2-------|-----------------4------2------|--0-----------------------------|
--0-------7-------4---------------|--0----0-----------------------|----------------0---------------|
----------------------------------|----------3------2------0------|--------------------------------|


  Q    E  Q    E  Q    E  Q.        Q.     Q.     Q    Q    Q       H.            H.            
--7----5--2---------------5------|--3-------------3----5----6----|--7------------10------------|
---------------3--L----L---------|---------0------0----1----2----|--3------------11------------|
----------2---------------2------|-------------------------------|-----------------------------|
--0------------------------------|---------0---------------------|--0--------------------------|
------------------0--------------|-------------------------------|-----------------------------|
---------------------------------|--3----------------------------|-----------------------------|


  Q    E  Q    E  Q.     Q    E     Q    E  E  E  E  Q.     Q.      
--0-------0-------------------0--|--2----3--2--1--0--L-------------|
-------3-------3--L--------------|---------------------------------|
---------------------------------|---------------------------------|
----------0--------------0-------|----------0---------------0------|
------------------2--------------|-------------------2-------------|
--3------------------------------|--2------------------------------|


  Q    E  Q    E  Q.     Q    E     Q    E  E  E  E  Q.     Q    E   
--0-------0----------------------|--0----1--0-----------------------|
-------3-------3--L-----------4--|-------------4--3--L-----------4--|
---------------------------------|----------------------------------|
----------0--------------0-------|----------0---------------0-------|
------------------2--------------|-------------------2--------------|
--3------------------------------|--0-------------------------------|


  Q    E  Q    E  Q.     Q    E     Q    E  Q    E  Q.     Q.      
--0----2--3----0--L------L-------|----------0----7--L-------------|
------------------------------4--|--3----4------------------------|
----------0--------------0-------|----------0---------------------|
---------------------------------|--0----------------------2------|
--3---------------4--------------|------------------0-------------|
---------------------------------|--------------------------------|


   Q    E  Q     E   Q    E  Q     E      Q    E  Q     E   Q    E  Q.      
---0-------------0---0------------10--|--10------------10--10--------------|
--12------------12--12----------------|------------------------------------|
----------------------------------11--|--11------------11--11--------------|
--------------------------------------|--------0--0--------------0--0------|
--------0--0--------------0--0--------|------------------------------------|
--------------------------------------|------------------------------------|


  Q    E  Q    E  Q    E  Q    E     Q.     Q    E  H.             
--3----3--1----1--0----0----------|------------------------------||
--0----0--0----0--1----1--4----4--|--3---------------------------||
--0----0--0----0--0----0--3----3--|--4------3----2--L------------||
--------------------------5----5--|--5------4----0--L------------||
----------2----2--3----3--4----4--|--5------5----1--L------------||
--3----3--------------------------|--------------3--L------------||

Duration Legend
---------------
W - whole
H - half
Q - quarter
E - 8th
S - 16th
T - 32nd
X - 64th
. - note dotted
|-n-| - n-tuplets

Tablature Legend
----------------
L - tied note
x - dead note
g - grace note
(n) - ghost note
> - accentuded note
NH - natural harmonic
AH - artificial harmonic
TH - tapped harmonic
SH - semi harmonic
PH - pitch harmonic
h - hammer on
p - pull off
b - bend
br - bendRelease
pb - preBend
pbr - preBendRelease
brb - bendReleaseBend
\n/ - tremolo bar dip
\n - tremolo bar dive
-/n - tremolo bar Release up
/n\ - tremolo bar inverted dip
/n - tremolo bar return
-\n - tremolo bar Release down
S - shift slide
s - legato slide
/ - slide into from below or out of upwards
\ - slide into from above or out of downwards
~ - vibrato
W - wide vibrato
tr - trill
TP - tremolo picking
T - tapping
S - slap
P - pop
< - fade in
^ - brush up
v - brush down

Login or Register to remove this ad.

10 comments on Ending Theme

very nice

very nice

I'm pretty sure

You copy and pasted this from Archard's tab. Not so skillful.

...

You're claiming he copied it from this tab? >.>

Ahh, never mind.

After doing another check, it appears I've screwed up. But I could have sworn there were two of these yesterday. Weren't there three different tabs for the ending theme?

Nope.

No, i didnt copied this from archard.
Took lotta time to tab this, please dont take my credit away.

nice tab, but how to play 8

4

nice tab, but how to play 8 and 2 at the same time?^^

Seriously

Unless I dislocate my pinky it is physically impossible for me to play an 8 and a 2 at the same time

try x7xxx8 instead of xx2xx8

try x7xxx8 instead of xx2xx8

^ Best way to do it. If you

^ Best way to do it.

If you want to stick to the 2 and 8, just use your thumb to hold down the 2, pinky on 8.

Very goood chum thanks

Very goood chum thanks