Ads

Star Road / Special Zone (Super Mario World) Guitar Tab

Submitted: Jun 23, 2012 by JordanVS

5
Average: 5 (4 votes)
Download | Listen
Game: Super Mario World
Composer(s): Koji Kondo
Style: Arrangement, Fingerstyle
Series: Mario

AutoScroll: Slow | Medium | Fast
Star Road/Special Zone Medley                           
Super Mario World
Koji Kondo
JordanVS



     E  E  E  E  Q    E  E     E  E  E  E  E  E  E  E   
E||-------------------------|--------------------------|
B||--1--1--1-----1-------0--|--L--0--0-----0--------0--|
G||-------------------------|-----------------2--3-----|
D||--0--------0-------0-----|-----2--------------------|
A||-------------------------|-----------3--------------|
E||-------------------------|--------------------------|


  E  E  E  E  Q    E  E     E  E  E  E  E  E  E  E   
-------------------------|--L-----------------------|
--1--1--1-----1-------0--|--L--0--0-----0--------0--|
--2--2--2-----2-------0--|--L--0--0-----0--2--3-----|
--3--3--3--0-------0--2--|--L--2--------2-----------|
-------------------------|-----------3--------------|
-------------------------|--------------------------|


   E   E   E  E   Q    E  E     E  E  E  E  E  Q.      
---8---8---8------8-------7--|-----7--7--7--7---------|
--10--10--10-----10-------8--|-----8--8--8--8---------|
--10--10--10-----10-------9--|-----9--9--9--9---------|
---0----------0--------0-----|------------------------|
-----------------------------|------------------------|
-----------------------------|--8---------------------|


   E   E   E  E   Q    E  E     E  E  E  E  E  E  E  E   
---8---8---8------8-------7--|-----7--7-----7--5--6--7--|
--10--10--10-----10-------8--|-----8--8-----8-----------|
--10--10--10-----10-------9--|-----9--9-----9-----------|
---0----------0--------0-----|--------------------------|
-----------------------------|--------------------------|
-----------------------------|--8--------8--------------|


   ^                                                
   W                     E  S E  E  E  E  E  S S S  
---8----------------||------0----0-----0-----------|
--10----------------||---1----0-----------0--0-1-3-|
--10----------------||*--0-------0--2--0-----0-0-0-|
--------------------||*----------------------------|
--------------------||---3-------------3-----------|
--------------------||-----------------------------|


                            1.___________________________

  E  S E  E  E  E  E  S S S    E  S E  E  E  E  E  S S S  
-----0----0-----0-----------|-----1----1-----1-----------|
--1----0-----------0--0-1-2-|--3----2-----1-----0--0-1-2-|
--0-------0--2--0-----0-0-0-|--2----2--2-----2-----2-2-2-|
----------------------------|--0-------------0-----------|
--3-------------3-----------|----------------------------|
----------------------------|----------------------------|


  E  S E  E  E  E  E  S S S    E  S E  E  E  E  E  S S S  
-----1----1-----1-----------|-----0----0-----0-----------|
--3----2-----1-----0--0-1-2-|--1----0-----------0--0-1-3-|
--2----2--2-----2-----2-2-2-|-------------2--------------|
--0-------------0-----------|--2--2----2--2--2-----2-2-2-|
----------------------------|--3-------------3-----------|
----------------------------|----------------------------|


                            2.________________________

  E  E.  E  S E.  S E  E       S E  E  S E  Q    Q     
---------------------------||--0-0--0----0--3---------|
--1--1---1--1-1------------||----------1----3---------|
------------------0-0--0--*||--2-2--2--2-2--4----0----|
--2--2---3--3-2-----------*||--4-4--4--4-4------------|
--3--3---4--4-3------------||-------------------------|
---------------------------||--------------------3----|


  ^       ^       ^                                           
                           |-----3-----|     |-----3----|     
  Q.      Q.      Q        Q     Q     Q     Q     Q    Q     
--8--------------------|-------------------------------------|
--8-------8------------|--10----12----10-----9----11----9----|
--9-------9-------9----|--10----------------10---------------|
---------10------10----|-------------------------------------|
-----------------10----|---8---------------------------------|
--8-------8-------8----|---------------------9---------------|


  E   E  H.             
----------------------||
--8-------------------||
--9------9------------||
-----12---------------||
----------------------||
--8-------------------||




Duration Legend
---------------
W - whole
H - half
Q - quarter
E - 8th
S - 16th
. - note dotted
|-n-|  - n-tuplets


Tablature Legend
----------------
L - tied note
^ - brush up
v - brush down
Login or Register to remove this ad.

2 comments on Star Road / Special Zone

Nice!!

5

Nice!!

sounds good & easy to play

5

sounds good & easy to play