Ads

Koopa Kid Boss Fight (Super Mario World) Bass Tab

Submitted: Jan 15, 2010 by Astron

5
Average: 5 (1 vote)
Download | Listen
Game: Super Mario World
Composer(s): Koji Kondo
Style: Transcription
Series: Mario

AutoScroll: Slow | Medium | Fast
Koopa Kid Boss Fight
Super Mario World
Koji Kondo
Astron
15.01.2010

G-------------5-------------6---------------------5----------6--
D---------5-------------6------------------5--------------6-----
A-----3------------4---------------3------------------4---------
E---------------------------------------------------------------



G--------------10------------11-------------10---------------11-
D--------10--------------11-------------10-------------11-------
A---8---------------9--------------8-------------9--------------
E---------------------------------------------------------------


G--------------------------------------5------6-------5------6--
D-----------------------------------5-------6------5-------6----
A--8-8-8-8--8---8-s-4-4-4-4--4---3-------4------3-------4-------
E---------------------------------------------------------------

and then it just repeats over and over until you have killed the boss.
Login or Register to remove this ad.