Ads

Donut Plains (Super Mario World) Guitar Tab

Submitted: Jun 24, 2011 by natenmn (Last updated: Jun 24, 2011)

4.666665
Average: 4.7 (6 votes)
Download | Listen
Game: Super Mario World
Composer(s): Koji Kondo
Style: Arrangement, Fingerstyle, Natural harmonics
Series: Mario

AutoScroll: Slow | Medium | Fast
                    Donut Plains - Super Mario World
                               Koji Kondo                 
                     (Arranged by Nathan Nordstrom)


Tab: Nathan Nordstrom
6/24/2011


                                                                      
Acoustic Guitar 1 (Capo 5)
*Please note the tuning*


    4/4 130bpm (Triplet Feel)

                          ^                           ^     
            |--3--|                     |--3--|             
      E  E  E  E  E  Q    Q       E  E  E  E  E  Q    Q     
D||---------4-----4-------2----|--------5-----5-------4----|
A||---------5-----5-------2----|--------7-----7-------5----|
G||*-----0-----0---------------|---------------------------|
D||*----------------------2----|-----7-----7----------0----|
A||----------------------------|--0------------------------|
D||---5--------------2---------|-----------------0---------|


                      ^       ^               ^          
        |--3--|               |-----3----|               
  E  E  E  E  E  Q    Q       Q     Q    Q    Q    Q     
--------4-----4-------2----|--5p----2-------------------|
--------5-----5-------2----|--0-------------------------|
-----0-----0---------------|-------------5----4----2----|
----------------------2----|------------------4---------|
---------------------------|--0-------------------------|
--5--------------2---------|------------------0---------|


                      ^                           ^     
        |--3--|                     |--3--|             
  E  E  E  E  E  Q    Q       E  E  E  E  E  Q    Q     
--------4-----4-------2----|--------5-----5-------4----|
--------5-----5-------2----|--------7-----7-------5----|
-----0-----0---------------|---------------------------|
----------------------2----|-----7-----7----------0----|
---------------------------|--0------------------------|
--5--------------2---------|-----------------0---------|


                            Ending 1, 2------------------------

                      ^                           NH  NH  NH      
        |--3--|                            |-----3----|           
  E  E  E  E  E  Q    Q       E  E   E  E  Q      S   S   Q     3x
--------4-----4-------2----|------------0-----------------------||
--------5-----5-------2----|-----2h--3--0-----------<>7---------||
-----0-----0---------------|--2-----------------<>7-----<>7----*||
----------------------2----|-----------------------------------*||
---------------------------|--0---------------------------------||
--5--------------2---------|------------------------------------||
                                                  T   I   T


Ending 3-------------------

                       v                           
  E  E   E  E  Q       Q        W                  
------------0---------------|--------------------||
-----2h--3--0---------------|--------------------||
--2-----------------<>12----|---L----------------||
--------------------<>12----|---L----------------||
--0-------------------------|--------------------||
----------------------------|--------------------||




Duration Legend
---------------
W - whole
H - half
Q - quarter
E - 8th
S - 16th
T - 32nd
X - 64th
. - note dotted
|-n-|  - n-tuplets


Tablature Legend
----------------
L - tied note
x - dead note
g - grace note
(n) - ghost note
> - accentuded note
NH - natural harmonic
AH - artificial harmonic
TH - tapped harmonic
SH - semi harmonic
PH - pitch harmonic
h - hammer on
p - pull off
b - bend
br - bendRelease
pb - preBend
pbr - preBendRelease
brb - bendReleaseBend
\n/ - tremolo bar dip
\n - tremolo bar dive
-/n - tremolo bar Release up
/n\ - tremolo bar inverted dip
/n - tremolo bar return
-\n - tremolo bar Release down
S - shift slide
s - legato slide
/ -  slide into from below or out of upwards
\ -  slide into from above or out of downwards
~ - vibrato
W - wide vibrato
tr - trill
TP - tremolo picking
T - tapping
S - slap
P - pop
< - fade in
^ - brush up
v - brush down
Login or Register to remove this ad.

8 comments on Donut Plains

I made a beginner's

I made a beginner's version!!! ;-)

Donut Plains

Very nice, Auri! I like

Very nice, Auri! I like it... I'd give it five stars, but I can't since I'd be self-rating if I did D:

Sho for super mod 2012

Sho for super mod 2012

lawl. This guy better be a

lawl.
This guy better be a troll.

Sho my brother, I've missed

Sho my brother, I've missed you ;A;
*waits for Tomo to complete the Triforce*

behave son

behave kid

Lol, the comment by Sho was

Lol, the comment by Sho was just a joke and abuse of mod power, but I felt guilty so I deleted it XD.

I like yr tab & this funny

5

I like yr tab & this funny tune ^^