Ads

Athlete's Rag (Super Mario World) Guitar Tab

Submitted: Jun 23, 2009 by auriplane

5
Average: 5 (9 votes)
Download | Listen
Game: Super Mario World
Composer(s): Koji Kondo
Style: 2 or more instruments, Arrangement
Series: Mario

AutoScroll: Slow | Medium | Fast
                Super Mario World - Athlete's Rag GUITAR DUET
                             Song by Koji Kondo

              Arranged & tabbed by auriplane ([email protected])



                                FIRST GUITAR

    Intro

   S S S S E   S S E   E   Q
e |--------------------4---4-------|
B |0-----0-L-----------5---5-------|
G |--2---------2---1---------------|
D |----3---------3-2---------------|
A |--------------------------------|
E |--------------------------------|

    Part A

   S S S S S S S S S S S S E   E    S S S S S S S S S S S S E   E
e |----5---3-5-----5---3-5-L-------|----5-----5-----5-----5-L-------|
B |------5-------5---2-------------|--------3-----------3-----------|
G |--2-------------------------2---|--2---2-------2---2---------2---|
D |--------------------------------|--------------------------------|
A |--------------------------------|--------------------------------|
E |--------------------------------|--------------------------------|

   S S S S S S S S S S S S E   E    S S S S S S S S S S S S E   E
e |----3---1-3-----3-----3-L-------|----3---0-3-----3---3---2---1---|
B |------3-------3---0-3-----------|------1-------1-----------------|
G |--0-------------------------0---|--0-----------------------------|
D |--------------------------------|--------------------------------|
A |--------------------------------|--------------------------------|
E |--------------------------------|--------------------------------|

   S S S S S S S S S S S S E   E    S S S S S S S S S S S S E   E
e |----5---3-5-----5---3-5-L-------|----5-----5-----5-----5-L-------|
B |------5-------5---2-------------|--------3-----------3-----------|
G |--2-------------------------2---|--2---2-------2---2---------2---|
D |--------------------------------|--------------------------------|
A |--------------------------------|--------------------------------|
E |--------------------------------|--------------------------------|

   S S S S S S S S S S S S E   E    S S S S S S S S E   E   Q     
e |----7-----7-----7-----7-L-------|----8-------5-7-8---7---8-------|
B |--0---0-------0---0---------0---|----------8---------------------|
G |--------7-----------7-----------|--5---0-L-----------------------|
D |--------------------------------|--------------------------------|
A |--------------------------------|--------------------------------|
E |--------------------------------|--------------------------------|

    Part B  (Play twice)

   Q       E.    S S S S S E.    S  E   E   E   E   E.    S E.    S
e |0-------------------------------|------------3---0---------------|
B |--------1---------1---1-L-------|----1---1-------------3-L-------|
G |--------------0-2-------------2-|0-----------------------------0-|
D |--------------------------------|--------------------------------|
A |--------------------------------|--------------------------------|
E |--------------------------------|--------------------------------|

   Q       E.    S S S S S E.    S  E   E   S S S S H
e |0-------------------------------|--------1-0---------------------|
B |--------1---------1---1-L-------|----1-------3-1-L---------------|
G |--------------0-2-------------2-|0-------------------------------|
D |--------------------------------|--------------------------------|
A |--------------------------------|--------------------------------|
E |--------------------------------|--------------------------------|

    Part C

   E.    E.    E   E.    S Q        S S E   E.    S H
e |0---------------0---------------|--------------------------------|
B |------1---------------1-L-------|4-1-----4-----3-L---------------|
G |------------0-------------------|----0---------------------------|
D |--------------------------------|--------------------------------|
A |--------------------------------|--------------------------------|
E |--------------------------------|--------------------------------|

   E.    E.    E   E.    S Q        S S E   E.    S H
e |0---------------0---------------|--------3-------L---------------|
B |------1---------------1-L-------|4-1-----------------------------|
G |------------0-------------------|----0---------------------------|
D |--------------------------------|--------------------------------|
A |--------------------------------|--------------------------------|
E |--------------------------------|--------------------------------|

   Q       E.    S S S S S E.    S  S S E   E.    S Q       E.    S
e |0-------------------------------|0-------------------------------|
B |--------1---------1---1-L-----3-|--1-----------1-L-------L-------|
G |--------------0-2---------------|----0---2---------------------0-|
D |--------------------------------|--------------------------------|
A |--------------------------------|--------------------------------|
E |--------------------------------|--------------------------------|

   E   E   E   E   E.    S S S E    W
e |3---5---3---5---3-------1-0-----|--------------------------------|
B |----------------------------3---|1-------------------------------|
G |----------------------0---------|--------------------------------|
D |--------------------------------|--------------------------------|
A |--------------------------------|--------------------------------|
E |--------------------------------|--------------------------------|

    Repeat back to Part A.



                             SECOND GUITAR

    Intro

   E.    S Q       E   E   Q
e |1-----1-L-----------7---7-------|
B |2-----2-L-----------------------|
G |--------------------------------|
D |--------------------------------|
A |----------------7---------------|
E |1-----1-L-------0---------------|

    Part A

   E   E   E   E   E   E   E   E    E   E   E   E   E   E   E   E
e |--------------------------------|--------------------------------|
B |--------------------------------|--------------------------------|
G |----2-------2-------2-------2---|----2-------2-------2-------2---|
D |--------2---------------2-------|0---------------0---------------|
A |0---------------0---------------|--------0---------------0-------|
E |--------------------------------|--------------------------------|

   E   E   E   E   E   E   E   E    E   E   E   E   E   E   E   E
e |--------------------------------|--------------------------------|
B |--------------------------------|--------------------------------|
G |----0-------0-------0-------0---|----0-------0-------------------|
D |--------0---------------0-------|--------------------------------|
A |--------------------------------|3---------------3---3---2---1---|
E |3---------------3---------------|--------3-----------------------|

   E   E   E   E   E   E   E   E    E   E   E   E   E   E   E   E
e |--------------------------------|--------------------------------|
B |--------------------------------|--------------------------------|
G |----2-------2-------2-------2---|----2-------2-------2-------2---|
D |--------2---------------2-------|0---------------0---------------|
A |0---------------0---------------|--------0---------------0-------|
E |--------------------------------|--------------------------------|

   E   E   E   E   E   E   E   E    E   E   E   E   E   E   E   E
e |--------------------------------|--------------------------------|
B |--------------------------------|--------------------------------|
G |----0-------0-------0-------0---|----0-------0-------------------|
D |--------0---------------0-------|--------------------------------|
A |--------------------------------|3---------------3-------3---3---|
E |3---------------3---------------|--------3-----------3-----------|

    Part B  (Play twice)

   E   E   E   E   E   E   E   E    E   E   E   E   E   E   E   E
e |--------------------------------|--------------------------------|
B |--------------------------------|--------------------------------|
G |----0-------0-------2-------2---|----0-------0-------2-------0---|
D |--------2-------3-------4-------|2-------1-------0---------------|
A |3-------------------------------|--------------------------------|
E |--------------------------------|------------------------3-------|

   E   E   E   E   E   E   E   E    E   E   E   E   E   E   E   E
e |--------------------------------|--------------------------------|
B |--------------------------------|------------0-------------------|
G |----0-------0-------2-------2---|----2---0-----------0-------0---|
D |--------2-------3-------4-------|0-------------------------------|
A |3-------------------------------|----------------3-------3-------|
E |--------------------------------|--------------------------------|

    Part C

   E   E   E   E   E   E   E   E    E   E   E   E   E   E   E   E
e |--------------------------------|--------------------------------|
B |--------------------------------|--------------------------------|
G |----2-------2-------0-------0---|----0-------0-------2-------0---|
D |3-------3-------2-------2-------|1-------1-------0---------------|
A |--------------------------------|--------------------------------|
E |--------------------------------|------------------------3-------|

   E   E   E   E   E   E   E   E    E   E   E   E   E   E   E   E
e |--------------------------------|--------------------------------|
B |--------------------------------|--------------------------------|
G |----2-------2-------0-------0---|----0-------0-------2-------0---|
D |3-------3-------2-------2-------|1-------1-------0---------------|
A |--------------------------------|--------------------------------|
E |--------------------------------|------------------------3-------|

   E   E   E   E   E   E   E   E    E   E   E   E   E   E   E   E
e |--------------------------------|--------------------------------|
B |--------------------------------|--------------------------------|
G |----0-------0-------0-------0---|----0-------0-------------------|
D |--------------------------------|--------------------4-------4---|
A |3-------3-------1-------1-------|0-------0-----------------------|
E |--------------------------------|----------------4-------4-------|

                                    1st ending
   E   E   E   E   E   E   E   E    E   E   E   E   E   E   E   E
e |--------------------------------|--------------------------------|
B |--------------------------------|--------------------------------|
G |--------------------------------|----0-------0-------0-------0---|
D |--------------------------------|--------------------------------|
A |------------------------0---2---|3-------3-------3-------3-------|
E |3-------------------------------|--------------------------------|

                                    2nd ending
                                    E   E   E   E   E   E   E   E
                                   |--------------------------------|
                                   |--------------------------------|
                                   |----0-------0-------0-----------|
                                   |--------------------------------|
                                   |3-------3-------3-------3-------|
                                   |--------------------------------|

    Repeat back to Part A.

Login or Register to remove this ad.

4 comments on Athlete's Rag

Incredible

I want to make love to this arrangement.

THANK YOU!

:D UBEREPIC AWESOME!

:D UBEREPIC AWESOME!

I will mail a clean, crisp

5

I will mail a clean, crisp dollar bill to any person who posts a video of him- or herself playing the entire first guitar part, at the original tempo, cleanly. No joke. I'll go to the bank and get a new dollar bill.

Great Tab

5

Man!!! What a greeeeaaaat tab. I've been looking for it for a long time...but I need to play in a nylon stringed guitar, thinks its going to sound better