Ads

Yoshi Start Demo (Super Mario World 2: Yoshi's Island) Guitar Tab

Submitted: Aug 01, 2017 by Desy

4.666665
Average: 4.7 (3 votes)
Download | Listen
Game: Super Mario World 2: Yoshi's Island
Composer(s): Koji Kondo
Style: Arrangement
Series: Mario

AutoScroll: Slow | Medium | Fast
Name of game: Super Mario World 2 - Yoshi's Island
Song Title: Yoshi's Start Demo
Composer: Koji Kondo
Tabber: Desy
31 July 2017

The base notes should ring throughout each measure.

E|-----------------0---0---0---0---|-----3---3---3---7---7---7---7---|-----------------0---0---0---0---|
B|-----1---1---1---1---1---1---1---|-----5---5---5---5---5---5---5---|-----1---1---1---1---1---1---1---|
G|-----2---2---2---2---2---2---2---|-----5---5---5---5---5---5---5---|-----2---2---2---2---2---2---2---|
D|-----3---3---3-------------------|---------------------------------|-----3---3---3-------------------|
A|---------------------------------|---------------------------------|---------------------------------|
E|-1-------------------------------|-1-------------------------------|-1-------------------------------|


E|-----3---3---3---7---7---7---7---|-----------------0---0---0---0---|-----3---3---3---7---7---7---7---|
B|-----5---5---5---5---5---5---5---|-----1---1---1---1---1---1---1---|-----3---3---3---5---5---5---5---|
G|-----5---5---5---5---5---5---5---|-----2---2---2---2---2---2---2---|-----4---4---4---7---7---7---7---|
D|---------------------------------|-----3---3---3-------------------|---------------------------------|
A|---------------------------------|---------------------------------|---------------------------------|
E|-1-------------------------------|-3-------------------------------|-3-------------------------------|


E|-----0---0---0-------------------|---------------------------------|
B|-----0---0---0-------------------|-1---1---1---0---0---0---0---0---|
G|-----0---0---0---2---2---2---2---|-2---2---2---0---0---0---0---0---|
D|-----------------3---3---3---3---|-3---3---3---0---0---0---0---0---|
A|-3-------------------------------|-3-------------------------------|
E|---------------------------------|---------------------------------|
Login or Register to remove this ad.