Ads

Touch Fuzzy Get Dizzy (Super Mario World 2: Yoshi's Island) Guitar Tab

Submitted: Jun 22, 2011 by Kabukibear (Last updated: Jun 23, 2011)

5
Average: 5 (9 votes)
Download | Listen
Game: Super Mario World 2: Yoshi's Island
Composer(s): Koji Kondo
Style: Arrangement, Fingerstyle, Percussion
Series: Mario

AutoScroll: Slow | Medium | Fast
Touch Fuzzy Get Dizzy                                   
~Super Mario World 2: Yoshi's Island~
Composed by: Koji Kondo
Arranged by: Justin Lincoln

*Note: Pay attention to the tuning!*

bpm=170


      E  E  E  E  Q    E  E     Q    E  E  E   E  Q     
E ||--4--4--4--4--0----4-----|-------------0h--2-------|
B ||--0--0--0--0-------0--2--|----------2--------------|
G#||--------------0----------|-------------0h--1-------|
D ||----------------------2--|-------------------------|
G#||-----------0--L-------0--|--1----1--3--------------|
E ||--0-----0----------------|-------------------------|


  E  E  E  E  Q    E  E     Q    E  E  E   E  E  E     E  E  E  E  Q    E  E   
--4--4--4--4--0----4-----|----------4--0h--2--2-----|--4--4--4--4--0----4-----|
--0--0--0--0-------0--2--|--------------------------|--0--0--0--0-------0--2--|
--------------0----------|-------------0h--1--1-----|--------------0----------|
----------------------2--|--------------------------|----------------------2--|
-----------0--L-------0--|--1----1--3---------------|-----------0--L-------0--|
--0-----0----------------|--------------------------|--0-----0----------------|


  Q    E  E  E   E  Q       E  E  E  E  Q    E  E     Q    E  E  E   E  E  E   
-------------0h--2-------|--4--4--4--4--0----4-----|----------4--0h--2--2-----|
----------2--------------|--0--0--0--0-------0--2--|--------------------------|
-------------0h--1-------|--------------0----------|-------------0h--1--1-----|
-------------------------|----------------------2--|--------------------------|
--1----1--3--------------|-----------0--L-------0--|--1----1--3---------------|
-------------------------|--0-----0----------------|--------------------------|


              >                           >                       >            
  E  E  E  E  E  E   E  E     E  E  E  E  Q.     E     Q    E  E  E  E  E  E   
-----------0--L------------|------------------------|-------------------------|
--0--0--0--------2p--0-----|-----0--0--0--L------2--|--0----2--0--L-----------|
------------------------0--|--L---------------------|----------------------0--|
---------------------------|------------------------|----------------2--L-----|
-----------0--x---------0--|--1-----1--3--x---------|--1----1--0--x--------0--|
--0-----0------------------|------------------------|-------------------------|


              >                        >                           >          
  E  E  E  E  Q.     E     E  E  E  E  E  E   E  E     E  E  E  E  Q.     E   
------------------------|-----------0--L------------|------------------------|
---------------------0--|--0--0--0--------2p--0-----|-----0--0--0--L------2--|
--L---------------------|------------------------0--|--L---------------------|
-----2--2--2--L---------|---------------------------|------------------------|
--------------x---------|-----------0--x---------0--|--1-----1--3--x---------|
--2-----2--0------------|--0-----0------------------|------------------------|


             >                          >                       >            
  Q    E  E  E  E  E  E     E  E  E  E  Q.     E     Q    E  E  E  E  E  E   
-------------------------|------------------------|----------------------0--|
--0----2--0--L-----------|---------------------2--|--0----2--0--L--2--L-----|
----------------------0--|--L------------------1--|--0----1--0--L--1--L--0--|
----------------2--L-----|-----2--2--2--L---------|-------------------------|
--1----1--0--x--------0--|--------------x---------|--1----1--0--x--------0--|
-------------------------|--2-----2--0------------|-------------------------|


                     >                   >            
  E  E  E  E  E   E  E  E     Q    E  E  E  E  E  E   
-----2-----0--2s--4--------|----------------------0--|
------------------------2--|--0----2--0--L--2--L-----|
-----1-----0--1s--3-----1--|--0----1--0--L--1--L--0--|
---------------------------|-------------------------|
---------------------x-----|--1----1--0--x--------0--|
--2-----2--0--L------------|-------------------------|


                     >                   >            
  E  E  E  E   E  E  E  E     Q    E  E  E  E  E  E   
-----4-----2p--0--0--------|----------------------0--|
------------------------2--|--0----2--0--L--2--L-----|
-----3-----1p--0--0-----1--|--0----1--0--L--1--L--0--|
---------------------------|-------------------------|
---------------------x-----|--1----1--0--x--------0--|
--2-----2--0---L-----------|-------------------------|


                     >                   >            
  E  E  E  E  E   E  E  E     Q    E  E  E  E  E  E   
-----2-----0--2s--4--------|----------------------0--|
------------------------2--|--0----2--0--L--2--L-----|
-----1-----0--1s--3-----1--|--0----1--0--L--1--L--0--|
---------------------------|-------------------------|
---------------------x-----|--1----1--0--x--------0--|
--2-----2--0--L------------|-------------------------|


                     >                             
  E  E  E  E   E  E  E  E       W                  
-----4-----2p--0--0-----0---||-------------------||
----------------------------||-------------------||
-----3-----1p--0--0-----0--*||-------------------||
---------------------------*||-------------------||
---------------------x------||-------------------||
--2-----2--0---L------------||--0----------------||




Duration Legend
---------------
W - whole
H - half
Q - quarter
E - 8th
S - 16th
T - 32nd
X - 64th
. - note dotted
|-n-|  - n-tuplets


Tablature Legend
----------------
L - tied note
x - tap strings
> - accentuded note
h - hammer on
p - pull off
Login or Register to remove this ad.

5 comments on Touch Fuzzy Get Dizzy

hhhhhhhhhhhnnnnnnnng

5

I love you so much right now, you don't even know, this is amazing O_O

only thing though, isn't this song called touch fuzzy get dizzy?

Is it? I have no idea, I'll

Is it? I have no idea, I'll change the title then.

<3 Yoshi's Island. Great

5

<3 Yoshi's Island. Great job, Kabuki... this is one of my new favorite tabs.

I love this tab, really nice

5

I love this tab, really nice job!

Awesome!

Nice one Kabuki! I wanted to ask - the X's on the tab, what sort of percussion did you intend for this? I've been using a 'thumb slap' on the guitar body, but it could also be a slap on the strings? The body slap sounds a bit too bassy..