Ads

Fortress (Super Mario World 2: Yoshi's Island) Guitar Tab

Submitted: Aug 21, 2014 by JordanVS

5
Average: 5 (4 votes)
Download | Listen
Game: Super Mario World 2: Yoshi's Island
Composer(s): Koji Kondo
Style: Arrangement, Fingerstyle
Series: Mario

This song is also called Castle

AutoScroll: Slow | Medium | Fast
Fortress
Castle
Super Mario World 2: Yoshi's Island 
Koji Kondo
JordanVS

-Drop C Tuning (C - G - C - F - A - d)
-Tempo : 170


20/4
               |--3--|                          |--3--| |-3| |3|                                                                       
     E  Q.     E  E  E  E  E  E  E  E  Q    E.  T  T  T E  S S E  H.           E  E  S S E  E  E  E  E  E  E  E  E  E  S  S  E.  E.    
D||----------------------------------------------------------------------------2--5--2-----------------------------------------------||
A||---------------------------------1--3----L---4h-6p-4-3--2---3--L--------------------4-3--1--3--4--3--1----------------------------||
F||------------------------------2-------------------------------------------------------------------------2-------------------------||
C||-----0------L--1--3--0--1--4-------------------------------------------------------------------------------4--1-----0h-1p-0-------||
G||-----------------------------------------------------------------------------------------------------------------3----------------||
C||--0------------------------L------------------------------L--------------------L------------------------L-------------------------||

3/4
      Q    E  E  E  E     Q    Q.     E     Q    E  E  E  E     Q    Q.     E     
|--------------------|-----------------|-------------------|------------------||
|--------------------|-------0---------|-------1-----1-----|-------0----------||
|*-------2-----2-----|-------1---------|-------2-----2-----|-------1---------*||
|*-------3-----3-----|-----------------|-------------------|-----------------*||
|--------------------|-----------------|-------------------|------------------||
|---0----------------|--2--------------|--3----------------|--2---------------||

*Segno
   Q    E  E  E  E     Q    Q    Q       Q    E  E  E  E     Q    Q    Q       Q    E  E  E  E   
--------------------|-----------------|-------------------|-----------------|-------------------|
--------------------|-------0---------|--1-------3--1--0--|-----------------|-------------3-----|
*-------------2-----|--1----1---------|-------2-----2-----|--2--------------|--0----3-----------|
*--0----3-----3-----|-----------------|-------------------|-------2---------|-------0-----0-----|
--------------------|-----------------|-------------------|-------2---------|-------------------|
---0----------------|--2--------------|--3----------------|--2--------------|--5----------------|


  Q    Q    Q       Q    E  E  E  E     Q    Q    Q         Q    E  E  E  E     E  E  E  E  E  E   
-------0---------|--1-------3--1--0--|------------------||-------------------|-----------------0--|
--2--------------|-------------------|--3----2----------||--3----------------|--------------------|
-----------------|-------------------|-------0---------*||----------3--1--3--|--2--------2--2-----|
-----------------|-------0-----0-----|-----------------*||-------3-----3-----|-----2--2-----------|
-------4---------|-------------------|------------------||--1----------------|--0-----------------|
--2--------------|--3----------------|--2---------------||-------------------|--------------------|


  Q    E  E  E  E     E  E  E  E  E  E     Q    E  E  E  E     E  E  E  E  E  E   
-------------------|-----------------0--|--3-------0-----0--|-----------------3--|
--3----------------|--------------------|-------------3-----|--2--------2--2-----|
----------3--1--3--|--2--------2--2-----|-------------------|-----0--0-----------|
-------3-----3-----|-----2--2-----------|-------3-----3-----|--------------------|
--1----------------|--0-----------------|--1----------------|--0-----------------|
-------------------|--------------------|-------------------|--------------------|


                                            |----3----|                          
  Q    E  E  E  E     Q    H           Q    Q    Q    Q       E  E  E  E  E  E   
--6-------3--1--3--|--0----9--------|--9----6--------------|--------------------|
-------------------|----------------|------------8----5----|--8--5--------5--2--|
-------------------|--0----6--------|----------------------|--------6--3--------|
-------3-----3-----|----------------|----------------------|--------------------|
--1----------------|--0----7--------|----------------------|--------------------|
-------------------|----------------|----------------------|--------------------|


  |--3--|  |--3--|                                                                               
  E  E  E  E  E  E  S S S S    S S S S S S S S S S S S    H.      Q    E  E  E  S    Q    Q    S  
----------------------------|--------------------------|----||-------------------|--------------|
--------2-------------------|--------------------------|----||--------0-----0----|--------------|
--3--0-----3--0-----3-0-----|--0-----------------------|----||*------------------|-------5------|
-----------------2------2---|----2-----2---------------|----||*-------3-----3----|-------4------|
--------------------------4-|------4-1---4-1---4-1-----|--4-||-------------------|--0-----------|
----------------------------|----------------5-----5-2-|----||---0---------------|--------------|


  Q    E  E  E  S    Q    Q    S      Q    E  E  E  E     Q    Q    Q       Q    E  E  E  E   
------------------|---------------||--4----5-----8-----|--7----6----8----|--7----------------|
-------2-----2----|---------------||-------0-----0-----|-----------------|-------------------|
-------0-----0----|-------5------*||-------------------|-------5---------|-------6-----6-----|
------------------|-------4------*||-------3-----------|-------4---------|-------5-----5-----|
------------------|--0------------||-------------8-----|--0--------------|-------------------|
--0---------------|---------------||--0----------------|-----------------|--0----------------|

												*Da Segno
  Q    Q    Q       Q    E  E  E  E     Q    Q     Q        Q     E  E   E  E     Q    Q    Q     
--4---------7----|--6----------3-----|------------11----|--10------------------|--6--------------|
-----------------|-------0-----0-----|--7---------------|----------------------|-----------------|
-------5---------|-------------------|-------5----------|----------------------|-------5---------|
-------4---------|-------3-----3-----|-------4----------|--------11-----11-----|-------4---------|
--0--------------|-------------------|--0---------------|--------10-----10-----|--0--------------|
-----------------|--0----------------|------------------|---0------------------|-----------------|


  ^               
  Q    H          
--5-------------||
--6-------------||
--7-------------||
--0-------------||
----------------||
-------0--------||




Duration Legend
---------------
W - whole
H - half
Q - quarter
E - 8th
S - 16th
T - 32nd
X - 64th
. - note dotted
|-n-|  - n-tuplets


Tablature Legend
----------------
L - tied note
^ - brush up
v - brush down
Login or Register to remove this ad.