Ads

Bonus Game (Super Mario World 2: Yoshi's Island) Guitar Tab

Submitted: Aug 10, 2014 by JordanVS

5
Average: 5 (2 votes)
Download | Listen
Game: Super Mario World 2: Yoshi's Island
Composer(s): Koji Kondo
Style: Arrangement, Fingerstyle
Series: Mario

AutoScroll: Slow | Medium | Fast
Bonus Game                                              
Super Mario World 2: Yoshi's Island
Koji Kondo
JordanVS

*Drop D tuning
*Capo on the 5th fret

-3/4
-Tempo:125 ~ 250 


  T:125						       T:250

     Q    E  E  Q       Q    Q    Q       H.              Q    Q    Q       Q    Q    Q     
E||------------------|-----------------|---------------|--3--------------|--2---------3----|
B||--3----3--3--3----|--3----1---------|---------------|--3--------------|--3--------------|
G||--4----4--4--4----|--4----2----2----|---------------|-----------------|-----------------|
D||------------------|-----------------|--4------------|-------0----0----|-------0----0----|
A||------------------|-----------------|---------------|-----------------|-----------------|
D||--0----0--0--0----|--0----2----3----|--4------------|--5--------------|--0--------------|


  Q    Q    Q       Q    Q    Q       Q    Q    Q       Q    Q    Q       Q    Q    Q     
--2--------------|-----------------|--2----0----2----|--0--------------|-----------------|
--3--------------|--3--------------|--0--------------|-------3----0----|--1--------------|
-----------------|--4--------------|-----------------|-----------------|--2--------------|
-------0----0----|-------0----0----|-------0----0----|-------0----0----|-------2----2----|
-----------------|-----------------|-----------------|-----------------|--0--------------|
--5--------------|--0--------------|--5--------------|--0--------------|-----------------|


  Q    Q    Q       Q    Q    Q       Q    Q    Q       Q    Q    Q       Q    Q    Q     
-----------------|--5--------------|--3---------5----|--3--------------|--2--------------|
--L--------------|--5--------------|-----------------|-----------------|-----------------|
--L--------------|-----------------|-----------------|-----------------|-----------------|
-------2----2----|-------2----2----|-------2----2----|-------2----2----|-------2----2----|
-----------------|--0--------------|-----------------|--0--------------|-----------------|
--2--------------|-----------------|--2--------------|-----------------|--2--------------|


  Q    Q    Q       Q    Q    Q       Q    Q    Q       Q    Q    Q       Q    Q    Q     
--5----3----5----|--3----2---------|-----------------|-----------------|--3--------------|
-----------------|------------5----|--0--------------|--L--------------|--3--------------|
-----------------|-----------------|--0--------------|--L--------------|-----------------|
-------2----2----|-------2----2----|-------0----0----|-------0----0----|-------0----0----|
--0--------------|-----------------|-----------------|-------2----2----|-----------------|
-----------------|--2--------------|--5--------------|--0--------------|--5--------------|


  Q    Q    Q       Q    Q    Q       Q    Q    Q       Q    Q    Q       Q    Q    Q     
--2---------3----|--2--------------|-----------------|-----------------|--3----5----7----|
--3--------------|--3--------------|--3--------------|--0----1----3----|--3--------------|
-----------------|-----------------|--4--------------|--0--------------|-----------------|
-------0----0----|-------0----0----|-------0----0----|-------0----0----|-------0----0----|
-----------------|-----------------|-----------------|-----------------|-----------------|
--0--------------|--5--------------|--0--------------|--5--------------|--0--------------|


  Q    Q    Q       Q    Q    Q       Q    Q    Q       Q    Q    Q       Q    Q    Q     
--0--------------|-----------------|--8--------------|--7---------5----|--7--------------|
--1--------------|-------5----5----|-------5----5----|-------5----5----|-------0----0----|
-----------------|-------5----5----|-----------------|-----------------|-------0----0----|
-------2----2----|-----------------|-----------------|-----------------|--0--------------|
--3--------------|-----------------|--3--------------|--4--------------|-----------------|
-----------------|--5--------------|-----------------|-----------------|-----------------|


  Q    Q    Q       Q    Q    Q       Q    Q    Q       Q    Q    Q       Q    Q    Q     
-----------------|--0---------3----|------------7----|--3--------------|-----------------|
--3---------4----|------------5----|--7---------7----|--3--------------|-----------------|
-------4----4----|-------5----5----|-------7----7----|-------0----0----|-------0----0----|
--2--------------|-----------------|-----------------|-------0----0----|-------0----0----|
-----------------|--0--------------|-----------------|-----------------|-----------------|
-----------------|-----------------|--0--------------|--5--------------|--0--------------|


  E  E  E  E  E  E     E  E  Q    Q       E  E  E  E  E  E     E  E  Q    Q     
--0-----0-----0-----|--0-----3---------|--------------------|--------3---------|
-----1-----1-----1--|-----1------------|--3-----3-----3-----|--3---------------|
--------------------|------------------|-----4-----4-----4--|-----4------------|
--------2-----2-----|--------2----2----|--------0-----0-----|--------0----0----|
--3-----------------|--3---------------|--2-----------------|--2---------------|
--------------------|------------------|--------------------|------------------|


  E  E  E  E  E  E     E  E  Q    Q       E  E  E  E  E  E     E  E  Q    Q     
--------------------|--------2---------|--------------------|------------------|
--1-----1-----1-----|--1---------------|--0-----0-----0-----|--0-----3---------|
-----2-----2-----2--|------------------|-----0-----0-----0--|-----0------------|
--------------------|------------------|--------------------|------------------|
--0-----3-----3-----|--0-----3----3----|--------2-----2-----|--------2----2----|
--------------------|------------------|--5-----------------|--5---------------|


  E  E  E  E  E  E     E  E  Q    Q       E  E  E  E  E  E     E  E  Q    E  E     Q    Q    Q     
--0-----0-----0-----|--0-----3---------|--------------------|--------7-------7--|--7----5----3----|
-----1-----1-----1--|-----1------------|--3-----3-----3-----|--3----------------|-----------------|
--------------------|------------------|-----4-----4-----4--|-----4-------------|-------5----5----|
--------2-----2-----|--------2----2----|--------0-----0-----|--------0----0-----|-----------------|
--3-----------------|--3---------------|--2-----------------|--2----------------|--0--------------|
--------------------|------------------|--------------------|-------------------|-----------------|


  Q    Q    Q       Q    Q    Q       H.              H.             
--0---------5----|--3--------------|--L------------|---------------||
-------7---------|-------0----0----|--0------------|--L------------||
-------5----5----|-------0----0----|--0------------|--L------------||
--0--------------|-----------------|--0------------|--L------------||
-----------------|-----------------|---------------|---------------||
-----------------|--5--------------|--5------------|--L------------||




Duration Legend
---------------
W - whole
H - half
Q - quarter
E - 8th
S - 16th
T - 32nd
X - 64th
. - note dotted
|-n-|  - n-tuplets


Tablature Legend
----------------
L - tied note
^ - brush up
v - brush down
Login or Register to remove this ad.