Athletic (Super Mario World 2: Yoshi's Island) Guitar Tab

Submitted: Oct 18, 2012 by JordanVS

4.958335
Average: 5 (24 votes)
Download | Listen
Game: Super Mario World 2: Yoshi's Island
Composer(s): Koji Kondo
Style: Arrangement, Fingerstyle
Series: Mario

This song is also called Hop! Hop! Donut Lifts

AutoScroll: Slow | Medium | Fast
Athletic Theme                             
Hop! Hop! Donut Lifts 
Super Mario World 2: Yoshi's Island
Koji Kondo
JordanVS


*The actual tempo is around 135 BPM,but 120 sounds 
fine and its a lot easier too! XD

*If you're having trouble in the really fast part (27-34) 
you can obviously play slower or simply repeat the 
main part once (3-10) or even just mess around with 
the chords a little,whatever works best for you. =D

* Capo on 5th fret


     S  S S E  S E  S  S S E  S E     S  S  S E  S E  E  E  E  E   
E||--------------------------------|----------0-------------------|
B||--------------------------------|-------------1----------------|
G||--2p-0---2--0----2p-0---2--0----|--2p-0h-2------2--0-----------|
D||-------2------2-------2------2--|--0------------0--------------|
A||--3-----------3--4-----------4--|------------------------0--2--|
E||--------------------------------|------------------3--3--------|


    E  E  E  E  E  E  E  E     E  E  E  E  Q    E  E   
|------------------------0--|--1--0----------------0--|
|---------------1--1-----0--|--2-----2----------------|
|*--------0--2--0-----------|-----2--0--2--0----------|
|*--1--2--------------------|-----------2-------------|
|---3-----------3-----------|--0-----4-----0----4-----|
|---------3-----------3-----|-------------------------|


  E  E  E  E  Q    E  E     E  E  E  E  Q    E  E   
--0-----0-----0----------|--3--0-------------------|
-----3-----3----------3--|--5--0--3--0-------------|
-----2-----2----------2--|--0-----2--0--2-------0--|
--0-----------0----------|--------0-----3----0-----|
--------0----------0-----|-------------------------|
-------------------------|--------------3----------|


  E  E  E  E  E  E  E  E     E  E  E  E  Q    E  E   
-----------------------0--|--1--0-----5--0-------0--|
--------------1--1-----0--|--2-----2--5----------0--|
--------0--2--0-----------|-----2--0-----2----------|
--1--2--------------------|-------------------------|
--3-----------3-----------|--0-----4-----0----4-----|
--------3-----------3-----|-------------------------|


  E  E  E  E  Q    E  E     E  E  E  E  E  E  E  E     
--0-----0--3--0-------0--|---------------------------||
-----------0-------------|--1------------------------||
-----2--------0----0-----|--0--0-----0-----0-----0--*||
--0--3-------------0--2--|--2-----------------------*||
--------0----------------|--3-----------3------------||
--------------3----------|--------3-----------3------||


  S E  S E  S S S S E  E  E     S E  S E  S S E  E  E  E   
--5-3--5-3--5-3---5-3--5-----|--3-1--3-1--3-1-------------|
--------------------------5--|----------------------------|
-----------------------------|----------------------------|
-----------------------------|--0-------------0-----------|
--0------4------0------4-----|---------0---------3--2--0--|
-----------------------------|----------------------------|


  S E  S E  S S S S E  E  E     S E  S E  S S E  E  E  E   
--3-1--3-1--3-1---3-1--3--1--|--1-0--1-0--1-0-------------|
-----------------------------|----------------------------|
-----------------------------|----------------------------|
---------0-------------0-----|----------------------------|
-----------------------------|--3-------------3--3--2--1--|
--3-------------3------------|---------3------------------|


  S E  S E  S S S S E  E  E     S E  S E  S S E  E  E  E   
--5-3--5-3--5-3---5-3--5-----|--3-1--3-1--3-1-------------|
--------------------------5--|----------------------------|
-----------------------------|----------------------------|
-----------------------------|--0-------------0-----------|
--0------4------0------4-----|---------0---------3--2--0--|
-----------------------------|----------------------------|


  ^  v   v   ^  v   v      ^  v   v                
  E  E.  E.  E  E.  E.     E  E.  E.  E  E  E  E   
--3--3---3---1--1---1---|--0--0---0---------------|
--3--3---3---1--1---1---|--0--0---0---3-----------|
--4--4---4---2--2---2---|--0--0---0---2--0--------|
--5----------3----------|--2----------0--3--------|
--5----------3----------|--2-------------2--0--2--|
--3----------1----------|--0-------------3--------|


  E  E  E  E  E  E  E  E     E  E  E  E  Q    E  E   
-----------------------0--|--1--0-----5--0-------0--|
--------------1--1-----0--|--2-----2--5----------0--|
--------0--2--0--0--------|-----2--0-----2----------|
--1--2--2--2--------------|-------------------------|
--3-----------3-----------|--0-----4-----0----4-----|
--------3-----------3-----|-------------------------|


  E  E  E  E  Q    E  E     E  E  E  E  E  E  E  E   
--0-----0--3--0-------0--|--------------------------|
-----------0-------------|--1-----------------------|
--2--2--2-----0----0-----|--0--0-----0-----0-----0--|
--0--3-------------0--2--|--2-----------------------|
--------0----------------|--3-----------3-----------|
--------------3----------|--------3-----------3-----|


  ^  ^  ^  ^  ^  ^  v ^  ^    ^  ^  ^  ^  ^  ^  v ^  ^  
  E  E  E  E  E  E  S E  S    E  E  E  E  E  E  S E  S  
--x--x--x--x--x--x--x-x--x-|--x--x--x--x--x--x--x-x--x-|
--1--1--1--1--1--1--1-1--1-|--2--2--2--2--2--2--2-2--2-|
--0--0--0--0--0--0--0-0--0-|--2--2--2--2--2--2--2-2--2-|
--2--2--2--2--2--2--2-2--2-|--2--2--2--2--2--2--2-2--2-|
--3--3--3--3--3--3--3-3--3-|--4--4--4--4--4--4--4-4--4-|
---------------------------|---------------------------|


  ^  ^  ^  ^  ^  ^  v ^  ^    ^  ^  ^  ^  ^  ^  v ^    
  E  E  E  E  E  E  S E  S    E  E  E  E  E  E  S E.   
--x--x--x--x--x--x--x-x--x-|--x--x--x--x--x--x--x-x---|
--1--1--1--1--1--1--1-1--1-|--0--0--0--0--0--0--0-0---|
--2--2--2--2--2--2--2-2--2-|--0--0--0--0--0--0--0-0---|
--3--3--3--3--3--3--3-3--3-|--3--3--3--3--3--3--3-3---|
--3--3--3--3--3--3--3-3--3-|--2--2--2--2--2--2--2-2---|
---------------------------|--------------------------|


  S S S S S S S S S S S E.  S S    S S S S E  S S S S S S S S S S  
------------0-----------0-------|--------0-3--0---5-0-------0-----|
--1---1-3-4---1---1---1-----1---|--2---2--------2-----2---2---2---|
----0-----------0---0---------0-|----2------------------2-------2-|
--------------------------------|---------------------------------|
--3---------------3-------------|--0--------------0---------------|
--------------------------------|---------------------------------|


  E  E  S S S S S S S S S S S S    S S S S S S S S S S S S S S S S  
--------------1-1-3-1-0---------|------------------1-3-1-0---------|
--3-----3---3-----------3-1-0---|--0---0---0---0-3---------3-1-0---|
-----2----2-------------------2-|----2---0---0-------------------2-|
--0-------------0---------------|----------------------------------|
--------------------------------|----------------------------------|
--------------------------------|--3---------------3---------------|


  S S S S S S S S S S S E.  S S    S S S S E  S S S S S S S S S S  
------------0-----------0-------|--------0-3--0---5-0-------0-----|
--1---1-3-4---1---1---1-----1---|--2---2--------2-----2---2---2---|
----0-----------0---0---------0-|----2------------------2-------2-|
--------------------------------|---------------------------------|
--3---------------3-------------|--0--------------0---------------|
--------------------------------|---------------------------------|


  S S S S S S S S S S S S S S S S    S S S S S S S S S S S E  S S S  
--------0-------1-----------------|------------0--------------------|
--3-2-3---3---3---0---0---0---0-3-|--1---1-3-4---1---1-----1------1-|
------------2-------0---0---0-----|----2-----------0---0-2----0-2---|
--0---------------0---------------|---------------------------------|
----------------------------------|--3---------------3--------------|
----------------------------------|---------------------------------|


  E  E  E  E  E  E  E  E     E  E  E  E  Q    E  E   
-----------------------0--|--1--0-----5--0-------0--|
--------------1--1-----0--|--2-----2--5----------0--|
--------0--2--0--0--------|-----2--0-----2----------|
--1--2--2--2--------------|-------------------------|
--3-----------3-----------|--0-----4-----0----4-----|
--------3-----------3-----|-------------------------|


                            ^                     
  E  E  E  E  Q    E  E     H.            Q       
--0-----0--3--0-------0--|---------------12\----||
-----------0-------------|--1------------13\----||
--2--2--2-----0----0-----|--0------------12\----||
--0--3-------------0--2--|--2-------------------||
--------0----------------|--3-------------------||
--------------3----------|----------------------||




Duration Legend
---------------
W - whole
H - half
Q - quarter
E - 8th
S - 16th
. - note dotted


Tablature Legend
----------------
L - tied note
x - dead note
h - hammer on
p - pull off
/ -  slide into from below or out of upwards
\ -  slide into from above or out of downwards
^ - brush up
v - brush down
Login or Register to remove this ad.

3 comments on Athletic

seems a bit tricky but i'm

5

seems a bit tricky but i'm going to keep working at it because I love this song, and its a great arrangement! keep up the good work

this is so good :D

5

this is so good :D

This has become one of my

5

This has become one of my favorite arrangements on the site. Nice work!